  0
SECTION
  2
HEADER
  9
$ACADVER
  1
AC1018
  9
$ACADMAINTVER
 70
   104
  9
$DWGCODEPAGE
  3
ANSI_1250
  9
$LASTSAVEDBY
  1
Marcin Grab
  9
$INSBASE
 10
0.0
 20
0.0
 30
0.0
  9
$EXTMIN
 10
7581641.09246322
 20
5644913.973202
 30
0.0
  9
$EXTMAX
 10
7588292.745596
 20
5649511.300729478
 30
0.0
  9
$LIMMIN
 10
0.0
 20
0.0
  9
$LIMMAX
 10
420.0
 20
297.0
  9
$ORTHOMODE
 70
     0
  9
$REGENMODE
 70
     1
  9
$FILLMODE
 70
     1
  9
$QTEXTMODE
 70
     0
  9
$MIRRTEXT
 70
     0
  9
$LTSCALE
 40
1.0
  9
$ATTMODE
 70
     1
  9
$TEXTSIZE
 40
2.5
  9
$TRACEWID
 40
1.0
  9
$TEXTSTYLE
  7
Standard
  9
$CLAYER
  8
0
  9
$CELTYPE
  6
ByLayer
  9
$CECOLOR
 62
   256
  9
$CELTSCALE
 40
1.0
  9
$DISPSILH
 70
     0
  9
$DIMSCALE
 40
1.0
  9
$DIMASZ
 40
2.5
  9
$DIMEXO
 40
0.625
  9
$DIMDLI
 40
3.75
  9
$DIMRND
 40
0.0
  9
$DIMDLE
 40
0.0
  9
$DIMEXE
 40
1.25
  9
$DIMTP
 40
0.0
  9
$DIMTM
 40
0.0
  9
$DIMTXT
 40
2.5
  9
$DIMCEN
 40
2.5
  9
$DIMTSZ
 40
0.0
  9
$DIMTOL
 70
     0
  9
$DIMLIM
 70
     0
  9
$DIMTIH
 70
     0
  9
$DIMTOH
 70
     0
  9
$DIMSE1
 70
     0
  9
$DIMSE2
 70
     0
  9
$DIMTAD
 70
     1
  9
$DIMZIN
 70
     8
  9
$DIMBLK
  1

  9
$DIMASO
 70
     1
  9
$DIMSHO
 70
     1
  9
$DIMPOST
  1

  9
$DIMAPOST
  1

  9
$DIMALT
 70
     0
  9
$DIMALTD
 70
     3
  9
$DIMALTF
 40
0.03937007874016
  9
$DIMLFAC
 40
1.0
  9
$DIMTOFL
 70
     1
  9
$DIMTVP
 40
0.0
  9
$DIMTIX
 70
     0
  9
$DIMSOXD
 70
     0
  9
$DIMSAH
 70
     0
  9
$DIMBLK1
  1

  9
$DIMBLK2
  1

  9
$DIMSTYLE
  2
ISO-25
  9
$DIMCLRD
 70
     0
  9
$DIMCLRE
 70
     0
  9
$DIMCLRT
 70
     0
  9
$DIMTFAC
 40
1.0
  9
$DIMGAP
 40
0.625
  9
$DIMJUST
 70
     0
  9
$DIMSD1
 70
     0
  9
$DIMSD2
 70
     0
  9
$DIMTOLJ
 70
     0
  9
$DIMTZIN
 70
     8
  9
$DIMALTZ
 70
     0
  9
$DIMALTTZ
 70
     0
  9
$DIMUPT
 70
     0
  9
$DIMDEC
 70
     2
  9
$DIMTDEC
 70
     2
  9
$DIMALTU
 70
     2
  9
$DIMALTTD
 70
     3
  9
$DIMTXSTY
  7
Standard
  9
$DIMAUNIT
 70
     0
  9
$DIMADEC
 70
     0
  9
$DIMALTRND
 40
0.0
  9
$DIMAZIN
 70
     0
  9
$DIMDSEP
 70
    44
  9
$DIMATFIT
 70
     3
  9
$DIMFRAC
 70
     0
  9
$DIMLDRBLK
  1

  9
$DIMLUNIT
 70
     2
  9
$DIMLWD
 70
    -2
  9
$DIMLWE
 70
    -2
  9
$DIMTMOVE
 70
     0
  9
$LUNITS
 70
     2
  9
$LUPREC
 70
     4
  9
$SKETCHINC
 40
1.0
  9
$FILLETRAD
 40
0.0
  9
$AUNITS
 70
     0
  9
$AUPREC
 70
     0
  9
$MENU
  1
.
  9
$ELEVATION
 40
0.0
  9
$PELEVATION
 40
0.0
  9
$THICKNESS
 40
0.0
  9
$LIMCHECK
 70
     0
  9
$CHAMFERA
 40
0.0
  9
$CHAMFERB
 40
0.0
  9
$CHAMFERC
 40
0.0
  9
$CHAMFERD
 40
0.0
  9
$SKPOLY
 70
     0
  9
$TDCREATE
 40
2459111.321516204
  9
$TDUCREATE
 40
2459111.238182870
  9
$TDUPDATE
 40
2459111.322303241
  9
$TDUUPDATE
 40
2459111.238969908
  9
$TDINDWG
 40
0.0007870370
  9
$TDUSRTIMER
 40
0.0007870370
  9
$USRTIMER
 70
     1
  9
$ANGBASE
 50
0.0
  9
$ANGDIR
 70
     0
  9
$PDMODE
 70
     0
  9
$PDSIZE
 40
0.0
  9
$PLINEWID
 40
0.0
  9
$SPLFRAME
 70
     0
  9
$SPLINETYPE
 70
     6
  9
$SPLINESEGS
 70
     8
  9
$HANDSEED
  5
755
  9
$SURFTAB1
 70
     6
  9
$SURFTAB2
 70
     6
  9
$SURFTYPE
 70
     6
  9
$SURFU
 70
     6
  9
$SURFV
 70
     6
  9
$UCSBASE
  2

  9
$UCSNAME
  2

  9
$UCSORG
 10
0.0
 20
0.0
 30
0.0
  9
$UCSXDIR
 10
1.0
 20
0.0
 30
0.0
  9
$UCSYDIR
 10
0.0
 20
1.0
 30
0.0
  9
$UCSORTHOREF
  2

  9
$UCSORTHOVIEW
 70
     0
  9
$UCSORGTOP
 10
0.0
 20
0.0
 30
0.0
  9
$UCSORGBOTTOM
 10
0.0
 20
0.0
 30
0.0
  9
$UCSORGLEFT
 10
0.0
 20
0.0
 30
0.0
  9
$UCSORGRIGHT
 10
0.0
 20
0.0
 30
0.0
  9
$UCSORGFRONT
 10
0.0
 20
0.0
 30
0.0
  9
$UCSORGBACK
 10
0.0
 20
0.0
 30
0.0
  9
$PUCSBASE
  2

  9
$PUCSNAME
  2

  9
$PUCSORG
 10
0.0
 20
0.0
 30
0.0
  9
$PUCSXDIR
 10
1.0
 20
0.0
 30
0.0
  9
$PUCSYDIR
 10
0.0
 20
1.0
 30
0.0
  9
$PUCSORTHOREF
  2

  9
$PUCSORTHOVIEW
 70
     0
  9
$PUCSORGTOP
 10
0.0
 20
0.0
 30
0.0
  9
$PUCSORGBOTTOM
 10
0.0
 20
0.0
 30
0.0
  9
$PUCSORGLEFT
 10
0.0
 20
0.0
 30
0.0
  9
$PUCSORGRIGHT
 10
0.0
 20
0.0
 30
0.0
  9
$PUCSORGFRONT
 10
0.0
 20
0.0
 30
0.0
  9
$PUCSORGBACK
 10
0.0
 20
0.0
 30
0.0
  9
$USERI1
 70
     0
  9
$USERI2
 70
     0
  9
$USERI3
 70
     0
  9
$USERI4
 70
     0
  9
$USERI5
 70
     0
  9
$USERR1
 40
0.0
  9
$USERR2
 40
0.0
  9
$USERR3
 40
0.0
  9
$USERR4
 40
0.0
  9
$USERR5
 40
0.0
  9
$WORLDVIEW
 70
     1
  9
$SHADEDGE
 70
     3
  9
$SHADEDIF
 70
    70
  9
$TILEMODE
 70
     1
  9
$MAXACTVP
 70
    64
  9
$PINSBASE
 10
0.0
 20
0.0
 30
0.0
  9
$PLIMCHECK
 70
     0
  9
$PEXTMIN
 10
0.0
 20
0.0
 30
0.0
  9
$PEXTMAX
 10
0.0
 20
0.0
 30
0.0
  9
$PLIMMIN
 10
0.0
 20
0.0
  9
$PLIMMAX
 10
12.0
 20
9.0
  9
$UNITMODE
 70
     0
  9
$VISRETAIN
 70
     1
  9
$PLINEGEN
 70
     0
  9
$PSLTSCALE
 70
     1
  9
$TREEDEPTH
 70
  3020
  9
$CMLSTYLE
  2
Standard
  9
$CMLJUST
 70
     0
  9
$CMLSCALE
 40
20.0
  9
$PROXYGRAPHICS
 70
     1
  9
$MEASUREMENT
 70
     1
  9
$CELWEIGHT
370
    -1
  9
$ENDCAPS
280
     0
  9
$JOINSTYLE
280
     0
  9
$LWDISPLAY
290
     0
  9
$INSUNITS
 70
     4
  9
$HYPERLINKBASE
  1

  9
$STYLESHEET
  1

  9
$XEDIT
290
     1
  9
$CEPSNTYPE
380
     0
  9
$PSTYLEMODE
290
     1
  9
$FINGERPRINTGUID
  2
{BEF106FB-CEBE-384F-92C6-89779ECEB549}
  9
$VERSIONGUID
  2
{1EA14CEA-57D8-C448-94D0-B946FE727F7A}
  9
$EXTNAMES
290
     1
  9
$PSVPSCALE
 40
0.0
  9
$OLESTARTUP
290
     0
  9
$SORTENTS
280
   127
  9
$INDEXCTL
280
     0
  9
$HIDETEXT
280
     1
  9
$XCLIPFRAME
290
     0
  9
$HALOGAP
280
     0
  9
$OBSCOLOR
 70
   257
  9
$OBSLTYPE
280
     0
  9
$INTERSECTIONDISPLAY
280
     0
  9
$INTERSECTIONCOLOR
 70
   257
  9
$DIMASSOC
280
     2
  9
$PROJECTNAME
  1

  0
ENDSEC
  0
SECTION
  2
CLASSES
  0
CLASS
  1
ACDBDICTIONARYWDFLT
  2
AcDbDictionaryWithDefault
  3
ObjectDBX Classes
 90
        0
 91
        1
280
     0
281
     0
  0
CLASS
  1
DICTIONARYVAR
  2
AcDbDictionaryVar
  3
ObjectDBX Classes
 90
        0
 91
       16
280
     0
281
     0
  0
CLASS
  1
TABLESTYLE
  2
AcDbTableStyle
  3
ObjectDBX Classes
 90
     4095
 91
        1
280
     0
281
     0
  0
CLASS
  1
MATERIAL
  2
AcDbMaterial
  3
ObjectDBX Classes
 90
     1153
 91
        3
280
     0
281
     0
  0
CLASS
  1
VISUALSTYLE
  2
AcDbVisualStyle
  3
ObjectDBX Classes
 90
     4095
 91
       24
280
     0
281
     0
  0
CLASS
  1
SCALE
  2
AcDbScale
  3
ObjectDBX Classes
 90
     1153
 91
       17
280
     0
281
     0
  0
CLASS
  1
MLEADERSTYLE
  2
AcDbMLeaderStyle
  3
ACDB_MLEADERSTYLE_CLASS
 90
     4095
 91
        2
280
     0
281
     0
  0
CLASS
  1
CELLSTYLEMAP
  2
AcDbCellStyleMap
  3
ObjectDBX Classes
 90
     1152
 91
        1
280
     0
281
     0
  0
CLASS
  1
EXACXREFPANELOBJECT
  2
ExAcXREFPanelObject
  3
EXAC_ESW
 90
     1025
 91
        0
280
     0
281
     0
  0
CLASS
  1
NPOCOLLECTION
  2
AcDbImpNonPersistentObjectsCollection
  3
ObjectDBX Classes
 90
     1153
 91
        0
280
     0
281
     0
  0
CLASS
  1
LAYER_INDEX
  2
AcDbLayerIndex
  3
ObjectDBX Classes
 90
        0
 91
        0
280
     0
281
     0
  0
CLASS
  1
SPATIAL_INDEX
  2
AcDbSpatialIndex
  3
ObjectDBX Classes
 90
        0
 91
        0
280
     0
281
     0
  0
CLASS
  1
IDBUFFER
  2
AcDbIdBuffer
  3
ObjectDBX Classes
 90
        0
 91
        0
280
     0
281
     0
  0
CLASS
  1
ACDBSECTIONVIEWSTYLE
  2
AcDbSectionViewStyle
  3
ObjectDBX Classes
 90
     1025
 91
        1
280
     0
281
     0
  0
CLASS
  1
ACDBDETAILVIEWSTYLE
  2
AcDbDetailViewStyle
  3
ObjectDBX Classes
 90
     1025
 91
        1
280
     0
281
     0
  0
CLASS
  1
SORTENTSTABLE
  2
AcDbSortentsTable
  3
ObjectDBX Classes
 90
        0
 91
        1
280
     0
281
     0
  0
ENDSEC
  0
SECTION
  2
TABLES
  0
TABLE
  2
VPORT
  5
8
330
0
100
AcDbSymbolTable
 70
     1
  0
VPORT
  5
EA
330
8
100
AcDbSymbolTableRecord
100
AcDbViewportTableRecord
  2
*Active
 70
     0
 10
0.0
 20
0.0
 11
1.0
 21
1.0
 12
7585042.578057387
 22
5646879.052622288
 13
0.0
 23
0.0
 14
10.0
 24
10.0
 15
10.0
 25
10.0
 16
0.0
 26
0.0
 36
1.0
 17
0.0
 27
0.0
 37
0.0
 40
7184.801184656295
 41
2.525132275132275
 42
50.0
 43
0.0
 44
0.0
 50
0.0
 51
0.0
 71
     0
 72
  1000
 73
     1
 74
     3
 75
     0
 76
     1
 77
     0
 78
     0
281
     0
 65
     1
110
0.0
120
0.0
130
0.0
111
1.0
121
0.0
131
0.0
112
0.0
122
1.0
132
0.0
 79
     0
146
0.0
1001
ACAD_NAV_VCDISPLAY
1070
     3
  0
ENDTAB
  0
TABLE
  2
LTYPE
  5
5
330
0
100
AcDbSymbolTable
 70
     2
  0
LTYPE
  5
14
330
5
100
AcDbSymbolTableRecord
100
AcDbLinetypeTableRecord
  2
ByBlock
 70
     0
  3

 72
    65
 73
     0
 40
0.0
  0
LTYPE
  5
15
330
5
100
AcDbSymbolTableRecord
100
AcDbLinetypeTableRecord
  2
ByLayer
 70
     0
  3

 72
    65
 73
     0
 40
0.0
  0
LTYPE
  5
16
330
5
100
AcDbSymbolTableRecord
100
AcDbLinetypeTableRecord
  2
Continuous
 70
     0
  3
Solid line
 72
    65
 73
     0
 40
0.0
  0
LTYPE
  5
276
330
5
100
AcDbSymbolTableRecord
100
AcDbLinetypeTableRecord
  2
JIS_02_1.2
 70
     0
  3
HIDDEN01.25  _ _ _ _ _ _ _ _ _ _ _ _ _ _ _ _ _
 72
    65
 73
     2
 40
2.5
 49
1.25
 74
     0
 49
-1.25
 74
     0
  0
ENDTAB
  0
TABLE
  2
LAYER
  5
2
102
{ACAD_XDICTIONARY
360
1FF
102
}
330
0
100
AcDbSymbolTable
 70
     2
  0
LAYER
  5
10
102
{ACAD_XDICTIONARY
360
13C
102
}
330
2
100
AcDbSymbolTableRecord
100
AcDbLayerTableRecord
  2
0
 70
     0
 62
     7
  6
Continuous
370
    -3
390
F
  0
LAYER
  5
277
330
2
100
AcDbSymbolTableRecord
100
AcDbLayerTableRecord
  2
RS Linia rozgraniczajaca DW 833
 70
     0
 62
     1
  6
JIS_02_1.2
370
    35
390
F
1001
AcAecLayerStandard
1000

1000

  0
ENDTAB
  0
TABLE
  2
STYLE
  5
3
330
0
100
AcDbSymbolTable
 70
     2
  0
STYLE
  5
11
330
3
100
AcDbSymbolTableRecord
100
AcDbTextStyleTableRecord
  2
Standard
 70
     0
 40
0.0
 41
1.0
 50
0.0
 71
     0
 42
2.5
  3
arial.ttf
  4

1001
ACAD
1000
Arial
1071
       34
  0
STYLE
  5
132
330
3
100
AcDbSymbolTableRecord
100
AcDbTextStyleTableRecord
  2
Opisowy
 70
     0
 40
0.0
 41
1.0
 50
0.0
 71
     0
 42
2.5
  3
arial.ttf
  4

1001
AcadAnnotative
1000
AnnotativeData
1002
{
1070
     1
1070
     1
1002
}
1001
ACAD
1000
Arial
1071
       34
  0
ENDTAB
  0
TABLE
  2
VIEW
  5
6
330
0
100
AcDbSymbolTable
 70
     0
  0
ENDTAB
  0
TABLE
  2
UCS
  5
7
330
0
100
AcDbSymbolTable
 70
     0
  0
ENDTAB
  0
TABLE
  2
APPID
  5
9
330
0
100
AcDbSymbolTable
 70
     9
  0
APPID
  5
12
330
9
100
AcDbSymbolTableRecord
100
AcDbRegAppTableRecord
  2
ACAD
 70
     0
  0
APPID
  5
9E
330
9
100
AcDbSymbolTableRecord
100
AcDbRegAppTableRecord
  2
ACAD_PSEXT
 70
     0
  0
APPID
  5
133
330
9
100
AcDbSymbolTableRecord
100
AcDbRegAppTableRecord
  2
AcadAnnoPO
 70
     0
  0
APPID
  5
134
330
9
100
AcDbSymbolTableRecord
100
AcDbRegAppTableRecord
  2
AcadAnnotative
 70
     0
  0
APPID
  5
135
330
9
100
AcDbSymbolTableRecord
100
AcDbRegAppTableRecord
  2
ACAD_DSTYLE_DIMJAG
 70
     0
  0
APPID
  5
136
330
9
100
AcDbSymbolTableRecord
100
AcDbRegAppTableRecord
  2
ACAD_DSTYLE_DIMTALN
 70
     0
  0
APPID
  5
165
330
9
100
AcDbSymbolTableRecord
100
AcDbRegAppTableRecord
  2
ACAD_MLEADERVER
 70
     0
  0
APPID
  5
217
330
9
100
AcDbSymbolTableRecord
100
AcDbRegAppTableRecord
  2
ACAD_NAV_VCDISPLAY
 70
     0
  0
APPID
  5
278
330
9
100
AcDbSymbolTableRecord
100
AcDbRegAppTableRecord
  2
AcAecLayerStandard
 70
     0
  0
ENDTAB
  0
TABLE
  2
DIMSTYLE
  5
A
330
0
100
AcDbSymbolTable
 70
     3
100
AcDbDimStyleTable
 71
     2
340
27
340
137
  0
DIMSTYLE
105
1B0
330
A
100
AcDbSymbolTableRecord
100
AcDbDimStyleTableRecord
  2
Standard
 70
     0
340
11
  0
DIMSTYLE
105
137
330
A
100
AcDbSymbolTableRecord
100
AcDbDimStyleTableRecord
  2
Opisowy
 70
     0
 40
0.0
 41
2.5
 42
0.625
 43
3.75
 44
1.25
 73
     0
 74
     0
 77
     1
 78
     8
140
2.5
141
2.5
143
0.03937007874016
147
0.625
171
     3
172
     1
271
     2
272
     2
274
     3
278
    44
283
     0
284
     8
340
11
1001
AcadAnnotative
1000
AnnotativeData
1002
{
1070
     1
1070
     1
1002
}
1001
ACAD_DSTYLE_DIMJAG
1070
   388
1040
1.5
1001
ACAD_DSTYLE_DIMTALN
1070
   392
1070
     0
  0
DIMSTYLE
105
27
330
A
100
AcDbSymbolTableRecord
100
AcDbDimStyleTableRecord
  2
ISO-25
 70
     0
 41
2.5
 42
0.625
 43
3.75
 44
1.25
 73
     0
 74
     0
 77
     1
 78
     8
140
2.5
141
2.5
143
0.03937007874016
147
0.625
171
     3
172
     1
271
     2
272
     2
274
     3
278
    44
283
     0
284
     8
340
11
  0
ENDTAB
  0
TABLE
  2
BLOCK_RECORD
  5
1
330
0
100
AcDbSymbolTable
 70
     2
  0
BLOCK_RECORD
  5
1F
102
{ACAD_XDICTIONARY
360
1CE
102
}
330
1
100
AcDbSymbolTableRecord
100
AcDbBlockTableRecord
  2
*Model_Space
340
22
  0
BLOCK_RECORD
  5
D2
330
1
100
AcDbSymbolTableRecord
100
AcDbBlockTableRecord
  2
*Paper_Space
340
D3
  0
BLOCK_RECORD
  5
D6
330
1
100
AcDbSymbolTableRecord
100
AcDbBlockTableRecord
  2
*Paper_Space0
340
D7
  0
ENDTAB
  0
ENDSEC
  0
SECTION
  2
BLOCKS
  0
BLOCK
  5
20
330
1F
100
AcDbEntity
  8
0
100
AcDbBlockBegin
  2
*Model_Space
 70
     0
 10
0.0
 20
0.0
 30
0.0
  3
*Model_Space
  1

  0
ENDBLK
  5
21
330
1F
100
AcDbEntity
  8
0
100
AcDbBlockEnd
  0
BLOCK
  5
D4
330
D2
100
AcDbEntity
 67
     1
  8
0
100
AcDbBlockBegin
  2
*Paper_Space
 70
     0
 10
0.0
 20
0.0
 30
0.0
  3
*Paper_Space
  1

  0
ENDBLK
  5
D5
330
D2
100
AcDbEntity
 67
     1
  8
0
100
AcDbBlockEnd
  0
BLOCK
  5
D8
330
D6
100
AcDbEntity
 67
     1
  8
0
100
AcDbBlockBegin
  2
*Paper_Space0
 70
     0
 10
0.0
 20
0.0
 30
0.0
  3
*Paper_Space0
  1

  0
ENDBLK
  5
D9
330
D6
100
AcDbEntity
 67
     1
  8
0
100
AcDbBlockEnd
  0
ENDSEC
  0
SECTION
  2
ENTITIES
  0
LINE
  5
4C7
330
1F
100
AcDbEntity
  8
RS Linia rozgraniczajaca DW 833
 48
6.0
100
AcDbLine
 39
0.35
 10
7585631.530136001
 20
5646493.629920001
 30
0.0
 11
7585655.158994001
 21
5646481.68349
 31
0.0
  0
LINE
  5
4C8
330
1F
100
AcDbEntity
  8
RS Linia rozgraniczajaca DW 833
 48
6.0
100
AcDbLine
 39
0.35
 10
7585655.158994001
 20
5646481.68349
 30
0.0
 11
7585672.68000143
 21
5646469.75999917
 31
0.0
  0
LINE
  5
4C9
330
1F
100
AcDbEntity
  8
RS Linia rozgraniczajaca DW 833
 48
6.0
100
AcDbLine
 39
0.35
 10
7585672.68000143
 20
5646469.75999917
 30
0.0
 11
7585681.17
 21
5646464.86
 31
0.0
  0
LINE
  5
4CA
330
1F
100
AcDbEntity
  8
RS Linia rozgraniczajaca DW 833
 48
6.0
100
AcDbLine
 39
0.35
 10
7585681.17
 20
5646464.86
 30
0.0
 11
7585697.37
 21
5646455.51
 31
0.0
  0
LINE
  5
4CB
330
1F
100
AcDbEntity
  8
RS Linia rozgraniczajaca DW 833
 48
6.0
100
AcDbLine
 39
0.35
 10
7585697.37
 20
5646455.51
 30
0.0
 11
7585699.66
 21
5646454.21
 31
0.0
  0
LINE
  5
4CC
330
1F
100
AcDbEntity
  8
RS Linia rozgraniczajaca DW 833
 48
6.0
100
AcDbLine
 39
0.35
 10
7585699.66
 20
5646454.21
 30
0.0
 11
7585713.91
 21
5646445.97
 31
0.0
  0
LINE
  5
4CD
330
1F
100
AcDbEntity
  8
RS Linia rozgraniczajaca DW 833
 48
6.0
100
AcDbLine
 39
0.35
 10
7585713.91
 20
5646445.97
 30
0.0
 11
7585737.82
 21
5646432.16
 31
0.0
  0
LINE
  5
4CE
330
1F
100
AcDbEntity
  8
RS Linia rozgraniczajaca DW 833
 48
6.0
100
AcDbLine
 39
0.35
 10
7585737.82
 20
5646432.16
 30
0.0
 11
7585760.0
 21
5646419.37
 31
0.0
  0
LINE
  5
4CF
330
1F
100
AcDbEntity
  8
RS Linia rozgraniczajaca DW 833
 48
6.0
100
AcDbLine
 39
0.35
 10
7585760.0
 20
5646419.37
 30
0.0
 11
7585761.469999998
 21
5646418.52
 31
0.0
  0
LINE
  5
4D0
330
1F
100
AcDbEntity
  8
RS Linia rozgraniczajaca DW 833
 48
6.0
100
AcDbLine
 39
0.35
 10
7585761.469999998
 20
5646418.52
 30
0.0
 11
7585768.880261999
 21
5646414.223852
 31
0.0
  0
LINE
  5
4D1
330
1F
100
AcDbEntity
  8
RS Linia rozgraniczajaca DW 833
 48
6.0
100
AcDbLine
 39
0.35
 10
7585768.880261999
 20
5646414.223852
 30
0.0
 11
7585793.59
 21
5646408.679999999
 31
0.0
  0
LINE
  5
4D2
330
1F
100
AcDbEntity
  8
RS Linia rozgraniczajaca DW 833
 48
6.0
100
AcDbLine
 39
0.35
 10
7585793.59
 20
5646408.679999999
 30
0.0
 11
7585817.62
 21
5646396.919999999
 31
0.0
  0
LINE
  5
4D3
330
1F
100
AcDbEntity
  8
RS Linia rozgraniczajaca DW 833
 48
6.0
100
AcDbLine
 39
0.35
 10
7585817.62
 20
5646396.919999999
 30
0.0
 11
7585840.569784997
 21
5646371.192083001
 31
0.0
  0
LINE
  5
4D4
330
1F
100
AcDbEntity
  8
RS Linia rozgraniczajaca DW 833
 48
6.0
100
AcDbLine
 39
0.35
 10
7585840.569784997
 20
5646371.192083001
 30
0.0
 11
7585851.444214001
 21
5646363.509902999
 31
0.0
  0
LINE
  5
4D5
330
1F
100
AcDbEntity
  8
RS Linia rozgraniczajaca DW 833
 48
6.0
100
AcDbLine
 39
0.35
 10
7585851.444214001
 20
5646363.509902999
 30
0.0
 11
7585864.480000001
 21
5646354.26
 31
0.0
  0
LINE
  5
4D6
330
1F
100
AcDbEntity
  8
RS Linia rozgraniczajaca DW 833
 48
6.0
100
AcDbLine
 39
0.35
 10
7585864.480000001
 20
5646354.26
 30
0.0
 11
7585883.940000001
 21
5646341.8
 31
0.0
  0
LINE
  5
4D7
330
1F
100
AcDbEntity
  8
RS Linia rozgraniczajaca DW 833
 48
6.0
100
AcDbLine
 39
0.35
 10
7586158.297185999
 20
5646199.127186
 30
0.0
 11
7586170.917236999
 21
5646188.864424
 31
0.0
  0
LINE
  5
4D8
330
1F
100
AcDbEntity
  8
RS Linia rozgraniczajaca DW 833
 48
6.0
100
AcDbLine
 39
0.35
 10
7586170.917236999
 20
5646188.864424
 30
0.0
 11
7586187.118010998
 21
5646167.192155002
 31
0.0
  0
LINE
  5
4D9
330
1F
100
AcDbEntity
  8
RS Linia rozgraniczajaca DW 833
 48
6.0
100
AcDbLine
 39
0.35
 10
7586187.118010998
 20
5646167.192155002
 30
0.0
 11
7586204.260955001
 21
5646150.001096
 31
0.0
  0
LINE
  5
4DA
330
1F
100
AcDbEntity
  8
RS Linia rozgraniczajaca DW 833
 48
6.0
100
AcDbLine
 39
0.35
 10
7586204.260955001
 20
5646150.001096
 30
0.0
 11
7586273.324490998
 21
5646107.320684
 31
0.0
  0
LINE
  5
4DB
330
1F
100
AcDbEntity
  8
RS Linia rozgraniczajaca DW 833
 48
6.0
100
AcDbLine
 39
0.35
 10
7586273.324490998
 20
5646107.320684
 30
0.0
 11
7586307.993111001
 21
5646086.123221
 31
0.0
  0
LINE
  5
4DC
330
1F
100
AcDbEntity
  8
RS Linia rozgraniczajaca DW 833
 48
6.0
100
AcDbLine
 39
0.35
 10
7586307.993111001
 20
5646086.123221
 30
0.0
 11
7586343.086829
 21
5646062.772095
 31
0.0
  0
LINE
  5
4DD
330
1F
100
AcDbEntity
  8
RS Linia rozgraniczajaca DW 833
 48
6.0
100
AcDbLine
 39
0.35
 10
7586343.086829
 20
5646062.772095
 30
0.0
 11
7586350.697691001
 21
5646055.830895
 31
0.0
  0
LINE
  5
4DE
330
1F
100
AcDbEntity
  8
RS Linia rozgraniczajaca DW 833
 48
6.0
100
AcDbLine
 39
0.35
 10
7586350.697691001
 20
5646055.830895
 30
0.0
 11
7586426.013407999
 21
5646009.954584
 31
0.0
  0
LINE
  5
4DF
330
1F
100
AcDbEntity
  8
RS Linia rozgraniczajaca DW 833
 48
6.0
100
AcDbLine
 39
0.35
 10
7586426.013407999
 20
5646009.954584
 30
0.0
 11
7586461.870074
 21
5645998.47853
 31
0.0
  0
LINE
  5
4E0
330
1F
100
AcDbEntity
  8
RS Linia rozgraniczajaca DW 833
 48
6.0
100
AcDbLine
 39
0.35
 10
7586461.870074
 20
5645998.47853
 30
0.0
 11
7586477.882081999
 21
5645999.168058
 31
0.0
  0
LINE
  5
4E1
330
1F
100
AcDbEntity
  8
RS Linia rozgraniczajaca DW 833
 48
6.0
100
AcDbLine
 39
0.35
 10
7586477.882081999
 20
5645999.168058
 30
0.0
 11
7586505.905074536
 21
5645982.301265311
 31
0.0
  0
LINE
  5
4E2
330
1F
100
AcDbEntity
  8
RS Linia rozgraniczajaca DW 833
 48
6.0
100
AcDbLine
 39
0.35
 10
7586505.905074536
 20
5645982.301265311
 30
0.0
 11
7586510.025095179
 21
5645977.928796138
 31
0.0
  0
LINE
  5
4E3
330
1F
100
AcDbEntity
  8
RS Linia rozgraniczajaca DW 833
 48
6.0
100
AcDbLine
 39
0.35
 10
7586510.025095179
 20
5645977.928796138
 30
0.0
 11
7586509.384514998
 21
5645973.685975
 31
0.0
  0
LINE
  5
4E4
330
1F
100
AcDbEntity
  8
RS Linia rozgraniczajaca DW 833
 48
6.0
100
AcDbLine
 39
0.35
 10
7586509.384514998
 20
5645973.685975
 30
0.0
 11
7586523.876173997
 21
5645957.260321622
 31
0.0
  0
LINE
  5
4E5
330
1F
100
AcDbEntity
  8
RS Linia rozgraniczajaca DW 833
 48
6.0
100
AcDbLine
 39
0.35
 10
7586523.876173997
 20
5645957.260321622
 30
0.0
 11
7586537.819243921
 21
5645944.437719643
 31
0.0
  0
LINE
  5
4E6
330
1F
100
AcDbEntity
  8
RS Linia rozgraniczajaca DW 833
 48
6.0
100
AcDbLine
 39
0.35
 10
7585883.940006
 20
5646341.799995999
 30
0.0
 11
7585967.173240998
 21
5646290.848746
 31
0.0
  0
LINE
  5
4E7
330
1F
100
AcDbEntity
  8
RS Linia rozgraniczajaca DW 833
 48
6.0
100
AcDbLine
 39
0.35
 10
7585967.173240998
 20
5646290.848746
 30
0.0
 11
7586020.971725
 21
5646259.890410999
 31
0.0
  0
LINE
  5
4E8
330
1F
100
AcDbEntity
  8
RS Linia rozgraniczajaca DW 833
 48
6.0
100
AcDbLine
 39
0.35
 10
7586020.971725
 20
5646259.890410999
 30
0.0
 11
7586098.679488001
 21
5646216.905903001
 31
0.0
  0
LINE
  5
4E9
330
1F
100
AcDbEntity
  8
RS Linia rozgraniczajaca DW 833
 48
6.0
100
AcDbLine
 39
0.35
 10
7586098.679488001
 20
5646216.905903001
 30
0.0
 11
7586119.453314999
 21
5646209.379539
 31
0.0
  0
LINE
  5
4EA
330
1F
100
AcDbEntity
  8
RS Linia rozgraniczajaca DW 833
 48
6.0
100
AcDbLine
 39
0.35
 10
7586119.453314999
 20
5646209.379539
 30
0.0
 11
7586140.483002998
 21
5646207.59071
 31
0.0
  0
LINE
  5
4EB
330
1F
100
AcDbEntity
  8
RS Linia rozgraniczajaca DW 833
 48
6.0
100
AcDbLine
 39
0.35
 10
7586140.483002998
 20
5646207.59071
 30
0.0
 11
7586158.266833191
 21
5646199.151869234
 31
0.0
  0
LINE
  5
4EC
330
1F
100
AcDbEntity
  8
RS Linia rozgraniczajaca DW 833
 48
6.0
100
AcDbLine
 39
0.35
 10
7586537.833871001
 20
5645944.424268
 30
0.0
 11
7586622.799400999
 21
5645891.362267
 31
0.0
  0
LINE
  5
4ED
330
1F
100
AcDbEntity
  8
RS Linia rozgraniczajaca DW 833
 48
6.0
100
AcDbLine
 39
0.35
 10
7586622.799400999
 20
5645891.362267
 30
0.0
 11
7586644.98059
 21
5645880.28003
 31
0.0
  0
LINE
  5
4EE
330
1F
100
AcDbEntity
  8
RS Linia rozgraniczajaca DW 833
 48
6.0
100
AcDbLine
 39
0.35
 10
7586644.98059
 20
5645880.28003
 30
0.0
 11
7586667.417798001
 21
5645866.033662001
 31
0.0
  0
LINE
  5
4EF
330
1F
100
AcDbEntity
  8
RS Linia rozgraniczajaca DW 833
 48
6.0
100
AcDbLine
 39
0.35
 10
7586667.417798001
 20
5645866.033662001
 30
0.0
 11
7586678.386075001
 21
5645858.439176
 31
0.0
  0
LINE
  5
4F0
330
1F
100
AcDbEntity
  8
RS Linia rozgraniczajaca DW 833
 48
6.0
100
AcDbLine
 39
0.35
 10
7586678.386075001
 20
5645858.439176
 30
0.0
 11
7586783.891373999
 21
5645796.600928
 31
0.0
  0
LINE
  5
4F1
330
1F
100
AcDbEntity
  8
RS Linia rozgraniczajaca DW 833
 48
6.0
100
AcDbLine
 39
0.35
 10
7586783.891373999
 20
5645796.600928
 30
0.0
 11
7586816.180418999
 21
5645778.934244
 31
0.0
  0
LINE
  5
4F2
330
1F
100
AcDbEntity
  8
RS Linia rozgraniczajaca DW 833
 48
6.0
100
AcDbLine
 39
0.35
 10
7586816.180418999
 20
5645778.934244
 30
0.0
 11
7586831.48
 21
5645775.72
 31
0.0
  0
LINE
  5
4F3
330
1F
100
AcDbEntity
  8
RS Linia rozgraniczajaca DW 833
 48
6.0
100
AcDbLine
 39
0.35
 10
7586831.48
 20
5645775.72
 30
0.0
 11
7586843.4
 21
5645770.58
 31
0.0
  0
LINE
  5
4F4
330
1F
100
AcDbEntity
  8
RS Linia rozgraniczajaca DW 833
 48
6.0
100
AcDbLine
 39
0.35
 10
7586843.4
 20
5645770.58
 30
0.0
 11
7586844.329999999
 21
5645769.88
 31
0.0
  0
LINE
  5
4F5
330
1F
100
AcDbEntity
  8
RS Linia rozgraniczajaca DW 833
 48
6.0
100
AcDbLine
 39
0.35
 10
7586844.329999999
 20
5645769.88
 30
0.0
 11
7586852.089999999
 21
5645764.03
 31
0.0
  0
LINE
  5
4F6
330
1F
100
AcDbEntity
  8
RS Linia rozgraniczajaca DW 833
 48
6.0
100
AcDbLine
 39
0.35
 10
7586852.089999999
 20
5645764.03
 30
0.0
 11
7586862.71
 21
5645756.02
 31
0.0
  0
LINE
  5
4F7
330
1F
100
AcDbEntity
  8
RS Linia rozgraniczajaca DW 833
 48
6.0
100
AcDbLine
 39
0.35
 10
7586862.71
 20
5645756.02
 30
0.0
 11
7586863.849999998
 21
5645753.95
 31
0.0
  0
LINE
  5
4F8
330
1F
100
AcDbEntity
  8
RS Linia rozgraniczajaca DW 833
 48
6.0
100
AcDbLine
 39
0.35
 10
7586863.849999998
 20
5645753.95
 30
0.0
 11
7586896.764711
 21
5645730.303012999
 31
0.0
  0
LINE
  5
4F9
330
1F
100
AcDbEntity
  8
RS Linia rozgraniczajaca DW 833
 48
6.0
100
AcDbLine
 39
0.35
 10
7586896.764711
 20
5645730.303012999
 30
0.0
 11
7586939.826942999
 21
5645703.223579999
 31
0.0
  0
LINE
  5
4FA
330
1F
100
AcDbEntity
  8
RS Linia rozgraniczajaca DW 833
 48
6.0
100
AcDbLine
 39
0.35
 10
7586939.826942999
 20
5645703.223579999
 30
0.0
 11
7586949.676647
 21
5645695.402729
 31
0.0
  0
LINE
  5
4FB
330
1F
100
AcDbEntity
  8
RS Linia rozgraniczajaca DW 833
 48
6.0
100
AcDbLine
 39
0.35
 10
7586949.676647
 20
5645695.402729
 30
0.0
 11
7587156.25
 21
5645573.61
 31
0.0
  0
LINE
  5
4FC
330
1F
100
AcDbEntity
  8
RS Linia rozgraniczajaca DW 833
 48
6.0
100
AcDbLine
 39
0.35
 10
7587156.25
 20
5645573.61
 30
0.0
 11
7587161.88
 21
5645572.4
 31
0.0
  0
LINE
  5
4FD
330
1F
100
AcDbEntity
  8
RS Linia rozgraniczajaca DW 833
 48
6.0
100
AcDbLine
 39
0.35
 10
7587161.88
 20
5645572.4
 30
0.0
 11
7587167.21
 21
5645571.27
 31
0.0
  0
LINE
  5
4FE
330
1F
100
AcDbEntity
  8
RS Linia rozgraniczajaca DW 833
 48
6.0
100
AcDbLine
 39
0.35
 10
7587167.21
 20
5645571.27
 30
0.0
 11
7587169.63
 21
5645569.79
 31
0.0
  0
LINE
  5
4FF
330
1F
100
AcDbEntity
  8
RS Linia rozgraniczajaca DW 833
 48
6.0
100
AcDbLine
 39
0.35
 10
7587169.63
 20
5645569.79
 30
0.0
 11
7587175.19
 21
5645566.389999999
 31
0.0
  0
LINE
  5
500
330
1F
100
AcDbEntity
  8
RS Linia rozgraniczajaca DW 833
 48
6.0
100
AcDbLine
 39
0.35
 10
7587175.19
 20
5645566.389999999
 30
0.0
 11
7587181.33
 21
5645562.639999999
 31
0.0
  0
LINE
  5
501
330
1F
100
AcDbEntity
  8
RS Linia rozgraniczajaca DW 833
 48
6.0
100
AcDbLine
 39
0.35
 10
7587181.33
 20
5645562.639999999
 30
0.0
 11
7587189.099999999
 21
5645557.89
 31
0.0
  0
LINE
  5
502
330
1F
100
AcDbEntity
  8
RS Linia rozgraniczajaca DW 833
 48
6.0
100
AcDbLine
 39
0.35
 10
7587189.099999999
 20
5645557.89
 30
0.0
 11
7587193.572393998
 21
5645550.544769
 31
0.0
  0
LINE
  5
503
330
1F
100
AcDbEntity
  8
RS Linia rozgraniczajaca DW 833
 48
6.0
100
AcDbLine
 39
0.35
 10
7587193.572393998
 20
5645550.544769
 30
0.0
 11
7587251.849209999
 21
5645512.131501
 31
0.0
  0
LINE
  5
504
330
1F
100
AcDbEntity
  8
RS Linia rozgraniczajaca DW 833
 48
6.0
100
AcDbLine
 39
0.35
 10
7587251.849209999
 20
5645512.131501
 30
0.0
 11
7587289.054855
 21
5645491.193456999
 31
0.0
  0
LINE
  5
505
330
1F
100
AcDbEntity
  8
RS Linia rozgraniczajaca DW 833
 48
6.0
100
AcDbLine
 39
0.35
 10
7587289.054855
 20
5645491.193456999
 30
0.0
 11
7587435.883368
 21
5645400.331229999
 31
0.0
  0
LINE
  5
506
330
1F
100
AcDbEntity
  8
RS Linia rozgraniczajaca DW 833
 48
6.0
100
AcDbLine
 39
0.35
 10
7587435.883368
 20
5645400.331229999
 30
0.0
 11
7587542.046577516
 21
5645340.212753651
 31
0.0
  0
LINE
  5
507
330
1F
100
AcDbEntity
  8
RS Linia rozgraniczajaca DW 833
 48
6.0
100
AcDbLine
 39
0.35
 10
7587542.046577516
 20
5645340.212753651
 30
0.0
 11
7587545.579122563
 21
5645343.55663916
 31
0.0
  0
LINE
  5
508
330
1F
100
AcDbEntity
  8
RS Linia rozgraniczajaca DW 833
 48
6.0
100
AcDbLine
 39
0.35
 10
7587545.579122563
 20
5645343.55663916
 30
0.0
 11
7587551.073066536
 21
5645338.366707898
 31
0.0
  0
LINE
  5
509
330
1F
100
AcDbEntity
  8
RS Linia rozgraniczajaca DW 833
 48
6.0
100
AcDbLine
 39
0.35
 10
7587551.073066536
 20
5645338.366707898
 30
0.0
 11
7587571.619089
 21
5645331.200012
 31
0.0
  0
LINE
  5
50A
330
1F
100
AcDbEntity
  8
RS Linia rozgraniczajaca DW 833
 48
6.0
100
AcDbLine
 39
0.35
 10
7587571.619089
 20
5645331.200012
 30
0.0
 11
7587597.115814999
 21
5645331.153757
 31
0.0
  0
LINE
  5
50B
330
1F
100
AcDbEntity
  8
RS Linia rozgraniczajaca DW 833
 48
6.0
100
AcDbLine
 39
0.35
 10
7587597.115814999
 20
5645331.153757
 30
0.0
 11
7587608.906128999
 21
5645323.191007999
 31
0.0
  0
LINE
  5
50C
330
1F
100
AcDbEntity
  8
RS Linia rozgraniczajaca DW 833
 48
6.0
100
AcDbLine
 39
0.35
 10
7587608.906128999
 20
5645323.191007999
 30
0.0
 11
7587626.498750998
 21
5645311.195722999
 31
0.0
  0
LINE
  5
50D
330
1F
100
AcDbEntity
  8
RS Linia rozgraniczajaca DW 833
 48
6.0
100
AcDbLine
 39
0.35
 10
7587626.498750998
 20
5645311.195722999
 30
0.0
 11
7587642.785369999
 21
5645282.534801
 31
0.0
  0
LINE
  5
50E
330
1F
100
AcDbEntity
  8
RS Linia rozgraniczajaca DW 833
 48
6.0
100
AcDbLine
 39
0.35
 10
7587642.785369999
 20
5645282.534801
 30
0.0
 11
7587667.045428
 21
5645264.949265
 31
0.0
  0
LINE
  5
50F
330
1F
100
AcDbEntity
  8
RS Linia rozgraniczajaca DW 833
 48
6.0
100
AcDbLine
 39
0.35
 10
7587667.045428
 20
5645264.949265
 30
0.0
 11
7587819.879720999
 21
5645167.458661999
 31
0.0
  0
LINE
  5
510
330
1F
100
AcDbEntity
  8
RS Linia rozgraniczajaca DW 833
 48
6.0
100
AcDbLine
 39
0.35
 10
7587819.879720999
 20
5645167.458661999
 30
0.0
 11
7587902.477639
 21
5645116.240051001
 31
0.0
  0
LINE
  5
511
330
1F
100
AcDbEntity
  8
RS Linia rozgraniczajaca DW 833
 48
6.0
100
AcDbLine
 39
0.35
 10
7587902.477639
 20
5645116.240051001
 30
0.0
 11
7587915.261153
 21
5645111.214483001
 31
0.0
  0
LINE
  5
512
330
1F
100
AcDbEntity
  8
RS Linia rozgraniczajaca DW 833
 48
6.0
100
AcDbLine
 39
0.35
 10
7587915.261153
 20
5645111.214483001
 30
0.0
 11
7587963.959816001
 21
5645081.883715
 31
0.0
  0
LINE
  5
513
330
1F
100
AcDbEntity
  8
RS Linia rozgraniczajaca DW 833
 48
6.0
100
AcDbLine
 39
0.35
 10
7587963.959816001
 20
5645081.883715
 30
0.0
 11
7588034.32838
 21
5645047.490391
 31
0.0
  0
LINE
  5
514
330
1F
100
AcDbEntity
  8
RS Linia rozgraniczajaca DW 833
 48
6.0
100
AcDbLine
 39
0.35
 10
7588034.32838
 20
5645047.490391
 30
0.0
 11
7588081.792166001
 21
5645026.543519
 31
0.0
  0
LINE
  5
515
330
1F
100
AcDbEntity
  8
RS Linia rozgraniczajaca DW 833
 48
6.0
100
AcDbLine
 39
0.35
 10
7588081.792166001
 20
5645026.543519
 30
0.0
 11
7588184.855034999
 21
5644985.818179
 31
0.0
  0
LINE
  5
516
330
1F
100
AcDbEntity
  8
RS Linia rozgraniczajaca DW 833
 48
6.0
100
AcDbLine
 39
0.35
 10
7588184.855034999
 20
5644985.818179
 30
0.0
 11
7588206.596226998
 21
5644976.305436
 31
0.0
  0
LINE
  5
517
330
1F
100
AcDbEntity
  8
RS Linia rozgraniczajaca DW 833
 48
6.0
100
AcDbLine
 39
0.35
 10
7588206.596226998
 20
5644976.305436
 30
0.0
 11
7588213.770930999
 21
5644983.237674999
 31
0.0
  0
LINE
  5
518
330
1F
100
AcDbEntity
  8
RS Linia rozgraniczajaca DW 833
 48
6.0
100
AcDbLine
 39
0.35
 10
7588213.770930999
 20
5644983.237674999
 30
0.0
 11
7588234.532100999
 21
5644975.201938999
 31
0.0
  0
LINE
  5
519
330
1F
100
AcDbEntity
  8
RS Linia rozgraniczajaca DW 833
 48
6.0
100
AcDbLine
 39
0.35
 10
7588234.532100999
 20
5644975.201938999
 30
0.0
 11
7588228.16
 21
5644967.16
 31
0.0
  0
LINE
  5
51A
330
1F
100
AcDbEntity
  8
RS Linia rozgraniczajaca DW 833
 48
6.0
100
AcDbLine
 39
0.35
 10
7588228.16
 20
5644967.16
 30
0.0
 11
7588292.745596
 21
5644943.880825
 31
0.0
  0
LINE
  5
51B
330
1F
100
AcDbEntity
  8
RS Linia rozgraniczajaca DW 833
 48
6.0
100
AcDbLine
 39
0.35
 10
7588292.745596
 20
5644943.880825
 30
0.0
 11
7588281.02212
 21
5644913.973202
 31
0.0
  0
LINE
  5
51C
330
1F
100
AcDbEntity
  8
RS Linia rozgraniczajaca DW 833
 48
6.0
100
AcDbLine
 39
0.35
 10
7588281.02212
 20
5644913.973202
 30
0.0
 11
7588122.139999999
 21
5644973.339999999
 31
0.0
  0
LINE
  5
51D
330
1F
100
AcDbEntity
  8
RS Linia rozgraniczajaca DW 833
 48
6.0
100
AcDbLine
 39
0.35
 10
7588122.139999999
 20
5644973.339999999
 30
0.0
 11
7588058.17
 21
5644997.780000001
 31
0.0
  0
LINE
  5
51E
330
1F
100
AcDbEntity
  8
RS Linia rozgraniczajaca DW 833
 48
6.0
100
AcDbLine
 39
0.35
 10
7588058.17
 20
5644997.780000001
 30
0.0
 11
7588048.56027891
 21
5645003.615844591
 31
0.0
  0
LINE
  5
51F
330
1F
100
AcDbEntity
  8
RS Linia rozgraniczajaca DW 833
 48
6.0
100
AcDbLine
 39
0.35
 10
7588048.56027891
 20
5645003.615844591
 30
0.0
 11
7588006.551841894
 21
5645029.210839945
 31
0.0
  0
LINE
  5
520
330
1F
100
AcDbEntity
  8
RS Linia rozgraniczajaca DW 833
 48
6.0
100
AcDbLine
 39
0.35
 10
7588006.551841894
 20
5645029.210839945
 30
0.0
 11
7587965.099756999
 21
5645047.248421999
 31
0.0
  0
LINE
  5
521
330
1F
100
AcDbEntity
  8
RS Linia rozgraniczajaca DW 833
 48
6.0
100
AcDbLine
 39
0.35
 10
7587965.099756999
 20
5645047.248421999
 30
0.0
 11
7587876.359303001
 21
5645093.495332999
 31
0.0
  0
LINE
  5
522
330
1F
100
AcDbEntity
  8
RS Linia rozgraniczajaca DW 833
 48
6.0
100
AcDbLine
 39
0.35
 10
7587876.359303001
 20
5645093.495332999
 30
0.0
 11
7587794.395993999
 21
5645144.261814
 31
0.0
  0
LINE
  5
523
330
1F
100
AcDbEntity
  8
RS Linia rozgraniczajaca DW 833
 48
6.0
100
AcDbLine
 39
0.35
 10
7587794.395993999
 20
5645144.261814
 30
0.0
 11
7587744.253835
 21
5645171.211991001
 31
0.0
  0
LINE
  5
524
330
1F
100
AcDbEntity
  8
RS Linia rozgraniczajaca DW 833
 48
6.0
100
AcDbLine
 39
0.35
 10
7587744.253835
 20
5645171.211991001
 30
0.0
 11
7587674.820268999
 21
5645213.342027
 31
0.0
  0
LINE
  5
525
330
1F
100
AcDbEntity
  8
RS Linia rozgraniczajaca DW 833
 48
6.0
100
AcDbLine
 39
0.35
 10
7587674.820268999
 20
5645213.342027
 30
0.0
 11
7587630.044470001
 21
5645246.493478
 31
0.0
  0
LINE
  5
526
330
1F
100
AcDbEntity
  8
RS Linia rozgraniczajaca DW 833
 48
6.0
100
AcDbLine
 39
0.35
 10
7587630.044470001
 20
5645246.493478
 30
0.0
 11
7587616.336616
 21
5645253.95237
 31
0.0
  0
LINE
  5
527
330
1F
100
AcDbEntity
  8
RS Linia rozgraniczajaca DW 833
 48
6.0
100
AcDbLine
 39
0.35
 10
7587616.336616
 20
5645253.95237
 30
0.0
 11
7587591.630237
 21
5645269.634499
 31
0.0
  0
LINE
  5
528
330
1F
100
AcDbEntity
  8
RS Linia rozgraniczajaca DW 833
 48
6.0
100
AcDbLine
 39
0.35
 10
7587591.630237
 20
5645269.634499
 30
0.0
 11
7587581.238277998
 21
5645255.492267
 31
0.0
  0
LINE
  5
529
330
1F
100
AcDbEntity
  8
RS Linia rozgraniczajaca DW 833
 48
6.0
100
AcDbLine
 39
0.35
 10
7587581.238277998
 20
5645255.492267
 30
0.0
 11
7587573.469999998
 21
5645259.87
 31
0.0
  0
LINE
  5
52A
330
1F
100
AcDbEntity
  8
RS Linia rozgraniczajaca DW 833
 48
6.0
100
AcDbLine
 39
0.35
 10
7587573.469999998
 20
5645259.87
 30
0.0
 11
7587555.941030001
 21
5645264.460684
 31
0.0
  0
LINE
  5
52B
330
1F
100
AcDbEntity
  8
RS Linia rozgraniczajaca DW 833
 48
6.0
100
AcDbLine
 39
0.35
 10
7587555.941030001
 20
5645264.460684
 30
0.0
 11
7587510.782731999
 21
5645310.305696
 31
0.0
  0
LINE
  5
52C
330
1F
100
AcDbEntity
  8
RS Linia rozgraniczajaca DW 833
 48
6.0
100
AcDbLine
 39
0.35
 10
7587510.782731999
 20
5645310.305696
 30
0.0
 11
7587468.313856
 21
5645337.443573001
 31
0.0
  0
LINE
  5
52D
330
1F
100
AcDbEntity
  8
RS Linia rozgraniczajaca DW 833
 48
6.0
100
AcDbLine
 39
0.35
 10
7587468.313856
 20
5645337.443573001
 30
0.0
 11
7587418.29566
 21
5645372.068748001
 31
0.0
  0
LINE
  5
52E
330
1F
100
AcDbEntity
  8
RS Linia rozgraniczajaca DW 833
 48
6.0
100
AcDbLine
 39
0.35
 10
7587418.29566
 20
5645372.068748001
 30
0.0
 11
7587319.33
 21
5645432.18
 31
0.0
  0
LINE
  5
52F
330
1F
100
AcDbEntity
  8
RS Linia rozgraniczajaca DW 833
 48
6.0
100
AcDbLine
 39
0.35
 10
7587319.33
 20
5645432.18
 30
0.0
 11
7587273.496641
 21
5645453.261852
 31
0.0
  0
LINE
  5
530
330
1F
100
AcDbEntity
  8
RS Linia rozgraniczajaca DW 833
 48
6.0
100
AcDbLine
 39
0.35
 10
7587273.496641
 20
5645453.261852
 30
0.0
 11
7587201.537193999
 21
5645500.0
 31
0.0
  0
LINE
  5
531
330
1F
100
AcDbEntity
  8
RS Linia rozgraniczajaca DW 833
 48
6.0
100
AcDbLine
 39
0.35
 10
7587201.537193999
 20
5645500.0
 30
0.0
 11
7587179.32
 21
5645514.379999999
 31
0.0
  0
LINE
  5
532
330
1F
100
AcDbEntity
  8
RS Linia rozgraniczajaca DW 833
 48
6.0
100
AcDbLine
 39
0.35
 10
7587179.32
 20
5645514.379999999
 30
0.0
 11
7587164.25
 21
5645519.42
 31
0.0
  0
LINE
  5
533
330
1F
100
AcDbEntity
  8
RS Linia rozgraniczajaca DW 833
 48
6.0
100
AcDbLine
 39
0.35
 10
7587164.25
 20
5645519.42
 30
0.0
 11
7587156.62
 21
5645521.969999999
 31
0.0
  0
LINE
  5
534
330
1F
100
AcDbEntity
  8
RS Linia rozgraniczajaca DW 833
 48
6.0
100
AcDbLine
 39
0.35
 10
7587156.62
 20
5645521.969999999
 30
0.0
 11
7587149.38
 21
5645527.97
 31
0.0
  0
LINE
  5
535
330
1F
100
AcDbEntity
  8
RS Linia rozgraniczajaca DW 833
 48
6.0
100
AcDbLine
 39
0.35
 10
7587149.38
 20
5645527.97
 30
0.0
 11
7587143.46
 21
5645532.860000001
 31
0.0
  0
LINE
  5
536
330
1F
100
AcDbEntity
  8
RS Linia rozgraniczajaca DW 833
 48
6.0
100
AcDbLine
 39
0.35
 10
7587143.46
 20
5645532.860000001
 30
0.0
 11
7587138.87
 21
5645537.92
 31
0.0
  0
LINE
  5
537
330
1F
100
AcDbEntity
  8
RS Linia rozgraniczajaca DW 833
 48
6.0
100
AcDbLine
 39
0.35
 10
7587138.87
 20
5645537.92
 30
0.0
 11
7587134.429999998
 21
5645542.820000001
 31
0.0
  0
LINE
  5
538
330
1F
100
AcDbEntity
  8
RS Linia rozgraniczajaca DW 833
 48
6.0
100
AcDbLine
 39
0.35
 10
7587134.429999998
 20
5645542.820000001
 30
0.0
 11
7586981.598252
 21
5645636.592334999
 31
0.0
  0
LINE
  5
539
330
1F
100
AcDbEntity
  8
RS Linia rozgraniczajaca DW 833
 48
6.0
100
AcDbLine
 39
0.35
 10
7586981.598252
 20
5645636.592334999
 30
0.0
 11
7586958.759999999
 21
5645650.51
 31
0.0
  0
LINE
  5
53A
330
1F
100
AcDbEntity
  8
RS Linia rozgraniczajaca DW 833
 48
6.0
100
AcDbLine
 39
0.35
 10
7586958.759999999
 20
5645650.51
 30
0.0
 11
7586956.98
 21
5645651.43
 31
0.0
  0
LINE
  5
53B
330
1F
100
AcDbEntity
  8
RS Linia rozgraniczajaca DW 833
 48
6.0
100
AcDbLine
 39
0.35
 10
7586956.98
 20
5645651.43
 30
0.0
 11
7586952.259999999
 21
5645653.860000001
 31
0.0
  0
LINE
  5
53C
330
1F
100
AcDbEntity
  8
RS Linia rozgraniczajaca DW 833
 48
6.0
100
AcDbLine
 39
0.35
 10
7586952.259999999
 20
5645653.860000001
 30
0.0
 11
7586945.929999999
 21
5645657.110000001
 31
0.0
  0
LINE
  5
53D
330
1F
100
AcDbEntity
  8
RS Linia rozgraniczajaca DW 833
 48
6.0
100
AcDbLine
 39
0.35
 10
7586945.929999999
 20
5645657.110000001
 30
0.0
 11
7586934.79
 21
5645662.83
 31
0.0
  0
LINE
  5
53E
330
1F
100
AcDbEntity
  8
RS Linia rozgraniczajaca DW 833
 48
6.0
100
AcDbLine
 39
0.35
 10
7586934.79
 20
5645662.83
 30
0.0
 11
7586922.98
 21
5645668.889999999
 31
0.0
  0
LINE
  5
53F
330
1F
100
AcDbEntity
  8
RS Linia rozgraniczajaca DW 833
 48
6.0
100
AcDbLine
 39
0.35
 10
7586922.98
 20
5645668.889999999
 30
0.0
 11
7586921.259999999
 21
5645669.92
 31
0.0
  0
LINE
  5
540
330
1F
100
AcDbEntity
  8
RS Linia rozgraniczajaca DW 833
 48
6.0
100
AcDbLine
 39
0.35
 10
7586921.259999999
 20
5645669.92
 30
0.0
 11
7586911.200000001
 21
5645675.940000001
 31
0.0
  0
LINE
  5
541
330
1F
100
AcDbEntity
  8
RS Linia rozgraniczajaca DW 833
 48
6.0
100
AcDbLine
 39
0.35
 10
7586911.200000001
 20
5645675.940000001
 30
0.0
 11
7586899.940000001
 21
5645682.68
 31
0.0
  0
LINE
  5
542
330
1F
100
AcDbEntity
  8
RS Linia rozgraniczajaca DW 833
 48
6.0
100
AcDbLine
 39
0.35
 10
7586899.940000001
 20
5645682.68
 30
0.0
 11
7586888.070000001
 21
5645689.77
 31
0.0
  0
LINE
  5
543
330
1F
100
AcDbEntity
  8
RS Linia rozgraniczajaca DW 833
 48
6.0
100
AcDbLine
 39
0.35
 10
7586888.070000001
 20
5645689.77
 30
0.0
 11
7586873.019999999
 21
5645698.77
 31
0.0
  0
LINE
  5
544
330
1F
100
AcDbEntity
  8
RS Linia rozgraniczajaca DW 833
 48
6.0
100
AcDbLine
 39
0.35
 10
7586873.019999999
 20
5645698.77
 30
0.0
 11
7586868.389999999
 21
5645701.55
 31
0.0
  0
LINE
  5
545
330
1F
100
AcDbEntity
  8
RS Linia rozgraniczajaca DW 833
 48
6.0
100
AcDbLine
 39
0.35
 10
7586868.389999999
 20
5645701.55
 30
0.0
 11
7586851.87
 21
5645711.42
 31
0.0
  0
LINE
  5
546
330
1F
100
AcDbEntity
  8
RS Linia rozgraniczajaca DW 833
 48
6.0
100
AcDbLine
 39
0.35
 10
7586851.87
 20
5645711.42
 30
0.0
 11
7586830.759999998
 21
5645717.870000001
 31
0.0
  0
LINE
  5
547
330
1F
100
AcDbEntity
  8
RS Linia rozgraniczajaca DW 833
 48
6.0
100
AcDbLine
 39
0.35
 10
7586830.759999998
 20
5645717.870000001
 30
0.0
 11
7586828.9
 21
5645719.04
 31
0.0
  0
LINE
  5
548
330
1F
100
AcDbEntity
  8
RS Linia rozgraniczajaca DW 833
 48
6.0
100
AcDbLine
 39
0.35
 10
7586828.9
 20
5645719.04
 30
0.0
 11
7586818.0
 21
5645725.92
 31
0.0
  0
LINE
  5
549
330
1F
100
AcDbEntity
  8
RS Linia rozgraniczajaca DW 833
 48
6.0
100
AcDbLine
 39
0.35
 10
7586818.0
 20
5645725.92
 30
0.0
 11
7586816.29
 21
5645727.22
 31
0.0
  0
LINE
  5
54A
330
1F
100
AcDbEntity
  8
RS Linia rozgraniczajaca DW 833
 48
6.0
100
AcDbLine
 39
0.35
 10
7586816.29
 20
5645727.22
 30
0.0
 11
7586804.540000001
 21
5645735.99
 31
0.0
  0
LINE
  5
54B
330
1F
100
AcDbEntity
  8
RS Linia rozgraniczajaca DW 833
 48
6.0
100
AcDbLine
 39
0.35
 10
7586804.540000001
 20
5645735.99
 30
0.0
 11
7586802.389999999
 21
5645742.28
 31
0.0
  0
LINE
  5
54C
330
1F
100
AcDbEntity
  8
RS Linia rozgraniczajaca DW 833
 48
6.0
100
AcDbLine
 39
0.35
 10
7586802.389999999
 20
5645742.28
 30
0.0
 11
7586800.690000001
 21
5645743.32
 31
0.0
  0
LINE
  5
54D
330
1F
100
AcDbEntity
  8
RS Linia rozgraniczajaca DW 833
 48
6.0
100
AcDbLine
 39
0.35
 10
7586800.690000001
 20
5645743.32
 30
0.0
 11
7586790.71
 21
5645749.450000001
 31
0.0
  0
LINE
  5
54E
330
1F
100
AcDbEntity
  8
RS Linia rozgraniczajaca DW 833
 48
6.0
100
AcDbLine
 39
0.35
 10
7586790.71
 20
5645749.450000001
 30
0.0
 11
7586774.509999998
 21
5645759.410000001
 31
0.0
  0
LINE
  5
54F
330
1F
100
AcDbEntity
  8
RS Linia rozgraniczajaca DW 833
 48
6.0
100
AcDbLine
 39
0.35
 10
7586774.509999998
 20
5645759.410000001
 30
0.0
 11
7586769.4
 21
5645762.55
 31
0.0
  0
LINE
  5
550
330
1F
100
AcDbEntity
  8
RS Linia rozgraniczajaca DW 833
 48
6.0
100
AcDbLine
 39
0.35
 10
7586769.4
 20
5645762.55
 30
0.0
 11
7586767.519999998
 21
5645763.709999999
 31
0.0
  0
LINE
  5
551
330
1F
100
AcDbEntity
  8
RS Linia rozgraniczajaca DW 833
 48
6.0
100
AcDbLine
 39
0.35
 10
7586767.519999998
 20
5645763.709999999
 30
0.0
 11
7586757.38
 21
5645769.94
 31
0.0
  0
LINE
  5
552
330
1F
100
AcDbEntity
  8
RS Linia rozgraniczajaca DW 833
 48
6.0
100
AcDbLine
 39
0.35
 10
7586757.38
 20
5645769.94
 30
0.0
 11
7586745.870000001
 21
5645777.019999999
 31
0.0
  0
LINE
  5
553
330
1F
100
AcDbEntity
  8
RS Linia rozgraniczajaca DW 833
 48
6.0
100
AcDbLine
 39
0.35
 10
7586745.870000001
 20
5645777.019999999
 30
0.0
 11
7586744.25
 21
5645778.009999999
 31
0.0
  0
LINE
  5
554
330
1F
100
AcDbEntity
  8
RS Linia rozgraniczajaca DW 833
 48
6.0
100
AcDbLine
 39
0.35
 10
7586744.25
 20
5645778.009999999
 30
0.0
 11
7586737.509999998
 21
5645782.150000001
 31
0.0
  0
LINE
  5
555
330
1F
100
AcDbEntity
  8
RS Linia rozgraniczajaca DW 833
 48
6.0
100
AcDbLine
 39
0.35
 10
7586737.509999998
 20
5645782.150000001
 30
0.0
 11
7586731.55
 21
5645785.820000001
 31
0.0
  0
LINE
  5
556
330
1F
100
AcDbEntity
  8
RS Linia rozgraniczajaca DW 833
 48
6.0
100
AcDbLine
 39
0.35
 10
7586731.55
 20
5645785.820000001
 30
0.0
 11
7586711.599999999
 21
5645798.08
 31
0.0
  0
LINE
  5
557
330
1F
100
AcDbEntity
  8
RS Linia rozgraniczajaca DW 833
 48
6.0
100
AcDbLine
 39
0.35
 10
7586711.599999999
 20
5645798.08
 30
0.0
 11
7586709.889999999
 21
5645799.13
 31
0.0
  0
LINE
  5
558
330
1F
100
AcDbEntity
  8
RS Linia rozgraniczajaca DW 833
 48
6.0
100
AcDbLine
 39
0.35
 10
7586709.889999999
 20
5645799.13
 30
0.0
 11
7586699.24
 21
5645805.679999999
 31
0.0
  0
LINE
  5
559
330
1F
100
AcDbEntity
  8
RS Linia rozgraniczajaca DW 833
 48
6.0
100
AcDbLine
 39
0.35
 10
7586699.24
 20
5645805.679999999
 30
0.0
 11
7586689.09
 21
5645811.919999999
 31
0.0
  0
LINE
  5
55A
330
1F
100
AcDbEntity
  8
RS Linia rozgraniczajaca DW 833
 48
6.0
100
AcDbLine
 39
0.35
 10
7586689.09
 20
5645811.919999999
 30
0.0
 11
7586682.690000001
 21
5645815.849999999
 31
0.0
  0
LINE
  5
55B
330
1F
100
AcDbEntity
  8
RS Linia rozgraniczajaca DW 833
 48
6.0
100
AcDbLine
 39
0.35
 10
7586682.690000001
 20
5645815.849999999
 30
0.0
 11
7586677.07
 21
5645819.3
 31
0.0
  0
LINE
  5
55C
330
1F
100
AcDbEntity
  8
RS Linia rozgraniczajaca DW 833
 48
6.0
100
AcDbLine
 39
0.35
 10
7586677.07
 20
5645819.3
 30
0.0
 11
7586666.95
 21
5645828.54
 31
0.0
  0
LINE
  5
55D
330
1F
100
AcDbEntity
  8
RS Linia rozgraniczajaca DW 833
 48
6.0
100
AcDbLine
 39
0.35
 10
7586666.95
 20
5645828.54
 30
0.0
 11
7586663.82
 21
5645825.139999999
 31
0.0
  0
LINE
  5
55E
330
1F
100
AcDbEntity
  8
RS Linia rozgraniczajaca DW 833
 48
6.0
100
AcDbLine
 39
0.35
 10
7586663.82
 20
5645825.139999999
 30
0.0
 11
7586659.999975999
 21
5645832.840897001
 31
0.0
  0
LINE
  5
55F
330
1F
100
AcDbEntity
  8
RS Linia rozgraniczajaca DW 833
 48
6.0
100
AcDbLine
 39
0.35
 10
7586659.999975999
 20
5645832.840897001
 30
0.0
 11
7586658.719999999
 21
5645832.249999999
 31
0.0
  0
LINE
  5
560
330
1F
100
AcDbEntity
  8
RS Linia rozgraniczajaca DW 833
 48
6.0
100
AcDbLine
 39
0.35
 10
7586658.719999999
 20
5645832.249999999
 30
0.0
 11
7586656.42130942
 21
5645834.37138686
 31
0.0
  0
LINE
  5
561
330
1F
100
AcDbEntity
  8
RS Linia rozgraniczajaca DW 833
 48
6.0
100
AcDbLine
 39
0.35
 10
7586656.42130942
 20
5645834.37138686
 30
0.0
 11
7586646.698831891
 21
5645841.685226405
 31
0.0
  0
LINE
  5
562
330
1F
100
AcDbEntity
  8
RS Linia rozgraniczajaca DW 833
 48
6.0
100
AcDbLine
 39
0.35
 10
7586646.698831891
 20
5645841.685226405
 30
0.0
 11
7586569.86
 21
5645886.42
 31
0.0
  0
LINE
  5
563
330
1F
100
AcDbEntity
  8
RS Linia rozgraniczajaca DW 833
 48
6.0
100
AcDbLine
 39
0.35
 10
7586569.86
 20
5645886.42
 30
0.0
 11
7586563.759999998
 21
5645888.929999999
 31
0.0
  0
LINE
  5
564
330
1F
100
AcDbEntity
  8
RS Linia rozgraniczajaca DW 833
 48
6.0
100
AcDbLine
 39
0.35
 10
7586563.759999998
 20
5645888.929999999
 30
0.0
 11
7586550.8
 21
5645894.53
 31
0.0
  0
LINE
  5
565
330
1F
100
AcDbEntity
  8
RS Linia rozgraniczajaca DW 833
 48
6.0
100
AcDbLine
 39
0.35
 10
7586550.8
 20
5645894.53
 30
0.0
 11
7586542.330000001
 21
5645899.650000001
 31
0.0
  0
LINE
  5
566
330
1F
100
AcDbEntity
  8
RS Linia rozgraniczajaca DW 833
 48
6.0
100
AcDbLine
 39
0.35
 10
7586542.330000001
 20
5645899.650000001
 30
0.0
 11
7586535.46
 21
5645903.8
 31
0.0
  0
LINE
  5
567
330
1F
100
AcDbEntity
  8
RS Linia rozgraniczajaca DW 833
 48
6.0
100
AcDbLine
 39
0.35
 10
7586535.46
 20
5645903.8
 30
0.0
 11
7586528.280000001
 21
5645908.14
 31
0.0
  0
LINE
  5
568
330
1F
100
AcDbEntity
  8
RS Linia rozgraniczajaca DW 833
 48
6.0
100
AcDbLine
 39
0.35
 10
7586528.280000001
 20
5645908.14
 30
0.0
 11
7586511.780000001
 21
5645918.12
 31
0.0
  0
LINE
  5
569
330
1F
100
AcDbEntity
  8
RS Linia rozgraniczajaca DW 833
 48
6.0
100
AcDbLine
 39
0.35
 10
7586511.780000001
 20
5645918.12
 30
0.0
 11
7586504.69
 21
5645922.41
 31
0.0
  0
LINE
  5
56A
330
1F
100
AcDbEntity
  8
RS Linia rozgraniczajaca DW 833
 48
6.0
100
AcDbLine
 39
0.35
 10
7586504.69
 20
5645922.41
 30
0.0
 11
7586495.8
 21
5645927.78
 31
0.0
  0
LINE
  5
56B
330
1F
100
AcDbEntity
  8
RS Linia rozgraniczajaca DW 833
 48
6.0
100
AcDbLine
 39
0.35
 10
7586495.8
 20
5645927.78
 30
0.0
 11
7586484.269999998
 21
5645934.76
 31
0.0
  0
LINE
  5
56C
330
1F
100
AcDbEntity
  8
RS Linia rozgraniczajaca DW 833
 48
6.0
100
AcDbLine
 39
0.35
 10
7586484.269999998
 20
5645934.76
 30
0.0
 11
7586474.16
 21
5645940.659999999
 31
0.0
  0
LINE
  5
56D
330
1F
100
AcDbEntity
  8
RS Linia rozgraniczajaca DW 833
 48
6.0
100
AcDbLine
 39
0.35
 10
7586474.16
 20
5645940.659999999
 30
0.0
 11
7586473.29
 21
5645941.08
 31
0.0
  0
LINE
  5
56E
330
1F
100
AcDbEntity
  8
RS Linia rozgraniczajaca DW 833
 48
6.0
100
AcDbLine
 39
0.35
 10
7586473.29
 20
5645941.08
 30
0.0
 11
7586464.48
 21
5645948.62
 31
0.0
  0
LINE
  5
56F
330
1F
100
AcDbEntity
  8
RS Linia rozgraniczajaca DW 833
 48
6.0
100
AcDbLine
 39
0.35
 10
7586464.48
 20
5645948.62
 30
0.0
 11
7586454.139999999
 21
5645957.44
 31
0.0
  0
LINE
  5
570
330
1F
100
AcDbEntity
  8
RS Linia rozgraniczajaca DW 833
 48
6.0
100
AcDbLine
 39
0.35
 10
7586454.139999999
 20
5645957.44
 30
0.0
 11
7586444.95
 21
5645965.29
 31
0.0
  0
LINE
  5
571
330
1F
100
AcDbEntity
  8
RS Linia rozgraniczajaca DW 833
 48
6.0
100
AcDbLine
 39
0.35
 10
7586444.95
 20
5645965.29
 30
0.0
 11
7586432.835496
 21
5645972.600226
 31
0.0
  0
LINE
  5
572
330
1F
100
AcDbEntity
  8
RS Linia rozgraniczajaca DW 833
 48
6.0
100
AcDbLine
 39
0.35
 10
7586432.835496
 20
5645972.600226
 30
0.0
 11
7586420.059999999
 21
5645980.4
 31
0.0
  0
LINE
  5
573
330
1F
100
AcDbEntity
  8
RS Linia rozgraniczajaca DW 833
 48
6.0
100
AcDbLine
 39
0.35
 10
7586420.059999999
 20
5645980.4
 30
0.0
 11
7586410.519999999
 21
5645986.45
 31
0.0
  0
LINE
  5
574
330
1F
100
AcDbEntity
  8
RS Linia rozgraniczajaca DW 833
 48
6.0
100
AcDbLine
 39
0.35
 10
7586410.519999999
 20
5645986.45
 30
0.0
 11
7586353.413729999
 21
5646020.269901
 31
0.0
  0
LINE
  5
575
330
1F
100
AcDbEntity
  8
RS Linia rozgraniczajaca DW 833
 48
6.0
100
AcDbLine
 39
0.35
 10
7586353.413729999
 20
5646020.269901
 30
0.0
 11
7586332.41165
 21
5646033.455668999
 31
0.0
  0
LINE
  5
576
330
1F
100
AcDbEntity
  8
RS Linia rozgraniczajaca DW 833
 48
6.0
100
AcDbLine
 39
0.35
 10
7586332.41165
 20
5646033.455668999
 30
0.0
 11
7586261.739835999
 21
5646073.589198
 31
0.0
  0
LINE
  5
577
330
1F
100
AcDbEntity
  8
RS Linia rozgraniczajaca DW 833
 48
6.0
100
AcDbLine
 39
0.35
 10
7586261.739835999
 20
5646073.589198
 30
0.0
 11
7586236.55356
 21
5646088.917005999
 31
0.0
  0
LINE
  5
578
330
1F
100
AcDbEntity
  8
RS Linia rozgraniczajaca DW 833
 48
6.0
100
AcDbLine
 39
0.35
 10
7586236.55356
 20
5646088.917005999
 30
0.0
 11
7586235.150000001
 21
5646087.35
 31
0.0
  0
LINE
  5
579
330
1F
100
AcDbEntity
  8
RS Linia rozgraniczajaca DW 833
 48
6.0
100
AcDbLine
 39
0.35
 10
7586235.150000001
 20
5646087.35
 30
0.0
 11
7586223.809999999
 21
5646094.42
 31
0.0
  0
LINE
  5
57A
330
1F
100
AcDbEntity
  8
RS Linia rozgraniczajaca DW 833
 48
6.0
100
AcDbLine
 39
0.35
 10
7586223.809999999
 20
5646094.42
 30
0.0
 11
7586225.009708
 21
5646095.805323
 31
0.0
  0
LINE
  5
57B
330
1F
100
AcDbEntity
  8
RS Linia rozgraniczajaca DW 833
 48
6.0
100
AcDbLine
 39
0.35
 10
7586225.009708
 20
5646095.805323
 30
0.0
 11
7586169.990710999
 21
5646126.183335
 31
0.0
  0
LINE
  5
57C
330
1F
100
AcDbEntity
  8
RS Linia rozgraniczajaca DW 833
 48
6.0
100
AcDbLine
 39
0.35
 10
7586169.990710999
 20
5646126.183335
 30
0.0
 11
7586137.204656
 21
5646131.914504
 31
0.0
  0
LINE
  5
57D
330
1F
100
AcDbEntity
  8
RS Linia rozgraniczajaca DW 833
 48
6.0
100
AcDbLine
 39
0.35
 10
7586137.204656
 20
5646131.914504
 30
0.0
 11
7586117.223760999
 21
5646141.952699001
 31
0.0
  0
LINE
  5
57E
330
1F
100
AcDbEntity
  8
RS Linia rozgraniczajaca DW 833
 48
6.0
100
AcDbLine
 39
0.35
 10
7586117.223760999
 20
5646141.952699001
 30
0.0
 11
7586106.411106551
 21
5646149.838883667
 31
0.0
  0
LINE
  5
57F
330
1F
100
AcDbEntity
  8
RS Linia rozgraniczajaca DW 833
 48
6.0
100
AcDbLine
 39
0.35
 10
7586106.411106551
 20
5646149.838883667
 30
0.0
 11
7586106.242332
 21
5646149.961979001
 31
0.0
  0
LINE
  5
580
330
1F
100
AcDbEntity
  8
RS Linia rozgraniczajaca DW 833
 48
6.0
100
AcDbLine
 39
0.35
 10
7586106.242332
 20
5646149.961979001
 30
0.0
 11
7586096.400910999
 21
5646161.893481
 31
0.0
  0
LINE
  5
581
330
1F
100
AcDbEntity
  8
RS Linia rozgraniczajaca DW 833
 48
6.0
100
AcDbLine
 39
0.35
 10
7586096.400910999
 20
5646161.893481
 30
0.0
 11
7586096.400905999
 21
5646161.893488
 31
0.0
  0
LINE
  5
582
330
1F
100
AcDbEntity
  8
RS Linia rozgraniczajaca DW 833
 48
6.0
100
AcDbLine
 39
0.35
 10
7586096.400905999
 20
5646161.893488
 30
0.0
 11
7586086.985679635
 21
5646174.955412655
 31
0.0
  0
LINE
  5
583
330
1F
100
AcDbEntity
  8
RS Linia rozgraniczajaca DW 833
 48
6.0
100
AcDbLine
 39
0.35
 10
7586086.985679635
 20
5646174.955412655
 30
0.0
 11
7586074.206150001
 21
5646185.251706
 31
0.0
  0
LINE
  5
584
330
1F
100
AcDbEntity
  8
RS Linia rozgraniczajaca DW 833
 48
6.0
100
AcDbLine
 39
0.35
 10
7586074.206150001
 20
5646185.251706
 30
0.0
 11
7585999.14999
 21
5646233.697009001
 31
0.0
  0
LINE
  5
585
330
1F
100
AcDbEntity
  8
RS Linia rozgraniczajaca DW 833
 48
6.0
100
AcDbLine
 39
0.35
 10
7585999.14999
 20
5646233.697009001
 30
0.0
 11
7585927.964132999
 21
5646279.133931
 31
0.0
  0
LINE
  5
586
330
1F
100
AcDbEntity
  8
RS Linia rozgraniczajaca DW 833
 48
6.0
100
AcDbLine
 39
0.35
 10
7585927.964132999
 20
5646279.133931
 30
0.0
 11
7585926.38
 21
5646277.179999999
 31
0.0
  0
LINE
  5
587
330
1F
100
AcDbEntity
  8
RS Linia rozgraniczajaca DW 833
 48
6.0
100
AcDbLine
 39
0.35
 10
7585926.38
 20
5646277.179999999
 30
0.0
 11
7585913.429999999
 21
5646285.129999999
 31
0.0
  0
LINE
  5
588
330
1F
100
AcDbEntity
  8
RS Linia rozgraniczajaca DW 833
 48
6.0
100
AcDbLine
 39
0.35
 10
7585913.429999999
 20
5646285.129999999
 30
0.0
 11
7585914.949447001
 21
5646287.004145
 31
0.0
  0
LINE
  5
589
330
1F
100
AcDbEntity
  8
RS Linia rozgraniczajaca DW 833
 48
6.0
100
AcDbLine
 39
0.35
 10
7585914.949447001
 20
5646287.004145
 30
0.0
 11
7585888.898412998
 21
5646302.776927
 31
0.0
  0
LINE
  5
58A
330
1F
100
AcDbEntity
  8
RS Linia rozgraniczajaca DW 833
 48
6.0
100
AcDbLine
 39
0.35
 10
7585888.898412998
 20
5646302.776927
 30
0.0
 11
7585887.5
 21
5646301.03
 31
0.0
  0
LINE
  5
58B
330
1F
100
AcDbEntity
  8
RS Linia rozgraniczajaca DW 833
 48
6.0
100
AcDbLine
 39
0.35
 10
7585887.5
 20
5646301.03
 30
0.0
 11
7585875.93
 21
5646308.13
 31
0.0
  0
LINE
  5
58C
330
1F
100
AcDbEntity
  8
RS Linia rozgraniczajaca DW 833
 48
6.0
100
AcDbLine
 39
0.35
 10
7585875.93
 20
5646308.13
 30
0.0
 11
7585877.324830001
 21
5646309.784235
 31
0.0
  0
LINE
  5
58D
330
1F
100
AcDbEntity
  8
RS Linia rozgraniczajaca DW 833
 48
6.0
100
AcDbLine
 39
0.35
 10
7585877.324830001
 20
5646309.784235
 30
0.0
 11
7585855.341455999
 21
5646323.094224
 31
0.0
  0
LINE
  5
58E
330
1F
100
AcDbEntity
  8
RS Linia rozgraniczajaca DW 833
 48
6.0
100
AcDbLine
 39
0.35
 10
7585855.341455999
 20
5646323.094224
 30
0.0
 11
7585854.12
 21
5646321.54
 31
0.0
  0
LINE
  5
58F
330
1F
100
AcDbEntity
  8
RS Linia rozgraniczajaca DW 833
 48
6.0
100
AcDbLine
 39
0.35
 10
7585854.12
 20
5646321.54
 30
0.0
 11
7585845.0
 21
5646327.150000001
 31
0.0
  0
LINE
  5
590
330
1F
100
AcDbEntity
  8
RS Linia rozgraniczajaca DW 833
 48
6.0
100
AcDbLine
 39
0.35
 10
7585845.0
 20
5646327.150000001
 30
0.0
 11
7585843.099999999
 21
5646328.05
 31
0.0
  0
LINE
  5
591
330
1F
100
AcDbEntity
  8
RS Linia rozgraniczajaca DW 833
 48
6.0
100
AcDbLine
 39
0.35
 10
7585843.099999999
 20
5646328.05
 30
0.0
 11
7585832.599999998
 21
5646336.71
 31
0.0
  0
LINE
  5
592
330
1F
100
AcDbEntity
  8
RS Linia rozgraniczajaca DW 833
 48
6.0
100
AcDbLine
 39
0.35
 10
7585832.599999998
 20
5646336.71
 30
0.0
 11
7585815.919999999
 21
5646339.44
 31
0.0
  0
LINE
  5
593
330
1F
100
AcDbEntity
  8
RS Linia rozgraniczajaca DW 833
 48
6.0
100
AcDbLine
 39
0.35
 10
7585815.919999999
 20
5646339.44
 30
0.0
 11
7585814.05
 21
5646339.75
 31
0.0
  0
LINE
  5
594
330
1F
100
AcDbEntity
  8
RS Linia rozgraniczajaca DW 833
 48
6.0
100
AcDbLine
 39
0.35
 10
7585814.05
 20
5646339.75
 30
0.0
 11
7585809.019999999
 21
5646341.440000001
 31
0.0
  0
LINE
  5
595
330
1F
100
AcDbEntity
  8
RS Linia rozgraniczajaca DW 833
 48
6.0
100
AcDbLine
 39
0.35
 10
7585809.019999999
 20
5646341.440000001
 30
0.0
 11
7585802.49
 21
5646343.650000001
 31
0.0
  0
LINE
  5
596
330
1F
100
AcDbEntity
  8
RS Linia rozgraniczajaca DW 833
 48
6.0
100
AcDbLine
 39
0.35
 10
7585802.49
 20
5646343.650000001
 30
0.0
 11
7585789.03
 21
5646348.18
 31
0.0
  0
LINE
  5
597
330
1F
100
AcDbEntity
  8
RS Linia rozgraniczajaca DW 833
 48
6.0
100
AcDbLine
 39
0.35
 10
7585789.03
 20
5646348.18
 30
0.0
 11
7585776.830000001
 21
5646355.0
 31
0.0
  0
LINE
  5
598
330
1F
100
AcDbEntity
  8
RS Linia rozgraniczajaca DW 833
 48
6.0
100
AcDbLine
 39
0.35
 10
7585776.830000001
 20
5646355.0
 30
0.0
 11
7585775.019999998
 21
5646356.019999999
 31
0.0
  0
LINE
  5
599
330
1F
100
AcDbEntity
  8
RS Linia rozgraniczajaca DW 833
 48
6.0
100
AcDbLine
 39
0.35
 10
7585775.019999998
 20
5646356.019999999
 30
0.0
 11
7585769.210000001
 21
5646364.519999999
 31
0.0
  0
LINE
  5
59A
330
1F
100
AcDbEntity
  8
RS Linia rozgraniczajaca DW 833
 48
6.0
100
AcDbLine
 39
0.35
 10
7585769.210000001
 20
5646364.519999999
 30
0.0
 11
7585762.620001
 21
5646374.169998
 31
0.0
  0
LINE
  5
59B
330
1F
100
AcDbEntity
  8
RS Linia rozgraniczajaca DW 833
 48
6.0
100
AcDbLine
 39
0.35
 10
7585762.620001
 20
5646374.169998
 30
0.0
 11
7585756.075036
 21
5646382.325327
 31
0.0
  0
LINE
  5
59C
330
1F
100
AcDbEntity
  8
RS Linia rozgraniczajaca DW 833
 48
6.0
100
AcDbLine
 39
0.35
 10
7585756.075036
 20
5646382.325327
 30
0.0
 11
7585662.210129001
 21
5646440.139344
 31
0.0
  0
LINE
  5
59D
330
1F
100
AcDbEntity
  8
RS Linia rozgraniczajaca DW 833
 48
6.0
100
AcDbLine
 39
0.35
 10
7585662.210129001
 20
5646440.139344
 30
0.0
 11
7585641.175878001
 21
5646451.849206999
 31
0.0
  0
LINE
  5
59E
330
1F
100
AcDbEntity
  8
RS Linia rozgraniczajaca DW 833
 48
6.0
100
AcDbLine
 39
0.35
 10
7585641.175878001
 20
5646451.849206999
 30
0.0
 11
7585637.469999999
 21
5646447.96
 31
0.0
  0
LINE
  5
59F
330
1F
100
AcDbEntity
  8
RS Linia rozgraniczajaca DW 833
 48
6.0
100
AcDbLine
 39
0.35
 10
7585637.469999999
 20
5646447.96
 30
0.0
 11
7585628.849999999
 21
5646453.12
 31
0.0
  0
LINE
  5
5A0
330
1F
100
AcDbEntity
  8
RS Linia rozgraniczajaca DW 833
 48
6.0
100
AcDbLine
 39
0.35
 10
7585628.849999999
 20
5646453.12
 30
0.0
 11
7585632.648942
 21
5646457.052237999
 31
0.0
  0
LINE
  5
5A1
330
1F
100
AcDbEntity
  8
RS Linia rozgraniczajaca DW 833
 48
6.0
100
AcDbLine
 39
0.35
 10
7585632.648942
 20
5646457.052237999
 30
0.0
 11
7585619.824188999
 21
5646464.864139
 31
0.0
  0
LINE
  5
5A2
330
1F
100
AcDbEntity
  8
RS Linia rozgraniczajaca DW 833
 48
6.0
100
AcDbLine
 39
0.35
 10
7585619.824188999
 20
5646464.864139
 30
0.0
 11
7585618.059999999
 21
5646462.989999999
 31
0.0
  0
LINE
  5
5A3
330
1F
100
AcDbEntity
  8
RS Linia rozgraniczajaca DW 833
 48
6.0
100
AcDbLine
 39
0.35
 10
7585618.059999999
 20
5646462.989999999
 30
0.0
 11
7585606.9
 21
5646469.65
 31
0.0
  0
LINE
  5
5A4
330
1F
100
AcDbEntity
  8
RS Linia rozgraniczajaca DW 833
 48
6.0
100
AcDbLine
 39
0.35
 10
7585606.9
 20
5646469.65
 30
0.0
 11
7585609.608764998
 21
5646472.511803001
 31
0.0
  0
LINE
  5
5A5
330
1F
100
AcDbEntity
  8
RS Linia rozgraniczajaca DW 833
 48
6.0
100
AcDbLine
 39
0.35
 10
7585609.608764998
 20
5646472.511803001
 30
0.0
 11
7585584.440000999
 21
5646487.53
 31
0.0
  0
LINE
  5
5A6
330
1F
100
AcDbEntity
  8
RS Linia rozgraniczajaca DW 833
 48
6.0
100
AcDbLine
 39
0.35
 10
7585584.440000999
 20
5646487.53
 30
0.0
 11
7585573.57
 21
5646493.04
 31
0.0
  0
LINE
  5
5A7
330
1F
100
AcDbEntity
  8
RS Linia rozgraniczajaca DW 833
 48
6.0
100
AcDbLine
 39
0.35
 10
7585573.57
 20
5646493.04
 30
0.0
 11
7585566.62
 21
5646496.57
 31
0.0
  0
LINE
  5
5A8
330
1F
100
AcDbEntity
  8
RS Linia rozgraniczajaca DW 833
 48
6.0
100
AcDbLine
 39
0.35
 10
7585566.62
 20
5646496.57
 30
0.0
 11
7585559.679999999
 21
5646500.09
 31
0.0
  0
LINE
  5
5A9
330
1F
100
AcDbEntity
  8
RS Linia rozgraniczajaca DW 833
 48
6.0
100
AcDbLine
 39
0.35
 10
7585559.679999999
 20
5646500.09
 30
0.0
 11
7585548.919999999
 21
5646506.61
 31
0.0
  0
LINE
  5
5AA
330
1F
100
AcDbEntity
  8
RS Linia rozgraniczajaca DW 833
 48
6.0
100
AcDbLine
 39
0.35
 10
7585548.919999999
 20
5646506.61
 30
0.0
 11
7585537.219999999
 21
5646513.69
 31
0.0
  0
LINE
  5
5AB
330
1F
100
AcDbEntity
  8
RS Linia rozgraniczajaca DW 833
 48
6.0
100
AcDbLine
 39
0.35
 10
7585537.219999999
 20
5646513.69
 30
0.0
 11
7585526.55
 21
5646520.17
 31
0.0
  0
LINE
  5
5AC
330
1F
100
AcDbEntity
  8
RS Linia rozgraniczajaca DW 833
 48
6.0
100
AcDbLine
 39
0.35
 10
7585526.55
 20
5646520.17
 30
0.0
 11
7585515.099999999
 21
5646527.099999999
 31
0.0
  0
LINE
  5
5AD
330
1F
100
AcDbEntity
  8
RS Linia rozgraniczajaca DW 833
 48
6.0
100
AcDbLine
 39
0.35
 10
7585515.099999999
 20
5646527.099999999
 30
0.0
 11
7585504.21
 21
5646533.699999999
 31
0.0
  0
LINE
  5
5AE
330
1F
100
AcDbEntity
  8
RS Linia rozgraniczajaca DW 833
 48
6.0
100
AcDbLine
 39
0.35
 10
7585504.21
 20
5646533.699999999
 30
0.0
 11
7585492.259999999
 21
5646540.950000001
 31
0.0
  0
LINE
  5
5AF
330
1F
100
AcDbEntity
  8
RS Linia rozgraniczajaca DW 833
 48
6.0
100
AcDbLine
 39
0.35
 10
7585492.259999999
 20
5646540.950000001
 30
0.0
 11
7585480.41
 21
5646546.58
 31
0.0
  0
LINE
  5
5B0
330
1F
100
AcDbEntity
  8
RS Linia rozgraniczajaca DW 833
 48
6.0
100
AcDbLine
 39
0.35
 10
7585480.41
 20
5646546.58
 30
0.0
 11
7585467.73
 21
5646550.25
 31
0.0
  0
LINE
  5
5B1
330
1F
100
AcDbEntity
  8
RS Linia rozgraniczajaca DW 833
 48
6.0
100
AcDbLine
 39
0.35
 10
7585467.73
 20
5646550.25
 30
0.0
 11
7585453.24
 21
5646554.44
 31
0.0
  0
LINE
  5
5B2
330
1F
100
AcDbEntity
  8
RS Linia rozgraniczajaca DW 833
 48
6.0
100
AcDbLine
 39
0.35
 10
7585453.24
 20
5646554.44
 30
0.0
 11
7585440.66
 21
5646562.19
 31
0.0
  0
LINE
  5
5B3
330
1F
100
AcDbEntity
  8
RS Linia rozgraniczajaca DW 833
 48
6.0
100
AcDbLine
 39
0.35
 10
7585440.66
 20
5646562.19
 30
0.0
 11
7585430.829999999
 21
5646568.24
 31
0.0
  0
LINE
  5
5B4
330
1F
100
AcDbEntity
  8
RS Linia rozgraniczajaca DW 833
 48
6.0
100
AcDbLine
 39
0.35
 10
7585430.829999999
 20
5646568.24
 30
0.0
 11
7585421.509999998
 21
5646576.12
 31
0.0
  0
LINE
  5
5B5
330
1F
100
AcDbEntity
  8
RS Linia rozgraniczajaca DW 833
 48
6.0
100
AcDbLine
 39
0.35
 10
7585421.509999998
 20
5646576.12
 30
0.0
 11
7585413.530000001
 21
5646582.870000001
 31
0.0
  0
LINE
  5
5B6
330
1F
100
AcDbEntity
  8
RS Linia rozgraniczajaca DW 833
 48
6.0
100
AcDbLine
 39
0.35
 10
7585413.530000001
 20
5646582.870000001
 30
0.0
 11
7585412.19
 21
5646584.49
 31
0.0
  0
LINE
  5
5B7
330
1F
100
AcDbEntity
  8
RS Linia rozgraniczajaca DW 833
 48
6.0
100
AcDbLine
 39
0.35
 10
7585412.19
 20
5646584.49
 30
0.0
 11
7585402.300000001
 21
5646596.54
 31
0.0
  0
LINE
  5
5B8
330
1F
100
AcDbEntity
  8
RS Linia rozgraniczajaca DW 833
 48
6.0
100
AcDbLine
 39
0.35
 10
7585402.300000001
 20
5646596.54
 30
0.0
 11
7585392.383134001
 21
5646604.559871999
 31
0.0
  0
LINE
  5
5B9
330
1F
100
AcDbEntity
  8
RS Linia rozgraniczajaca DW 833
 48
6.0
100
AcDbLine
 39
0.35
 10
7585392.383134001
 20
5646604.559871999
 30
0.0
 11
7585356.014529001
 21
5646621.910543999
 31
0.0
  0
LINE
  5
5BA
330
1F
100
AcDbEntity
  8
RS Linia rozgraniczajaca DW 833
 48
6.0
100
AcDbLine
 39
0.35
 10
7585356.014529001
 20
5646621.910543999
 30
0.0
 11
7585311.528153104
 21
5646629.256979659
 31
0.0
  0
LINE
  5
5BB
330
1F
100
AcDbEntity
  8
RS Linia rozgraniczajaca DW 833
 48
6.0
100
AcDbLine
 39
0.35
 10
7585311.528153104
 20
5646629.256979659
 30
0.0
 11
7585299.982953784
 21
5646638.063160972
 31
0.0
  0
LINE
  5
5BC
330
1F
100
AcDbEntity
  8
RS Linia rozgraniczajaca DW 833
 48
6.0
100
AcDbLine
 39
0.35
 10
7585299.982953784
 20
5646638.063160972
 30
0.0
 11
7585312.599999999
 21
5646651.98
 31
0.0
  0
LINE
  5
5BD
330
1F
100
AcDbEntity
  8
RS Linia rozgraniczajaca DW 833
 48
6.0
100
AcDbLine
 39
0.35
 10
7585312.599999999
 20
5646651.98
 30
0.0
 11
7585300.69
 21
5646659.849999999
 31
0.0
  0
LINE
  5
5BE
330
1F
100
AcDbEntity
  8
RS Linia rozgraniczajaca DW 833
 48
6.0
100
AcDbLine
 39
0.35
 10
7585300.69
 20
5646659.849999999
 30
0.0
 11
7585291.11
 21
5646666.169999999
 31
0.0
  0
LINE
  5
5BF
330
1F
100
AcDbEntity
  8
RS Linia rozgraniczajaca DW 833
 48
6.0
100
AcDbLine
 39
0.35
 10
7585291.11
 20
5646666.169999999
 30
0.0
 11
7585286.110000001
 21
5646669.48
 31
0.0
  0
LINE
  5
5C0
330
1F
100
AcDbEntity
  8
RS Linia rozgraniczajaca DW 833
 48
6.0
100
AcDbLine
 39
0.35
 10
7585286.110000001
 20
5646669.48
 30
0.0
 11
7585262.929999998
 21
5646686.360000001
 31
0.0
  0
LINE
  5
5C1
330
1F
100
AcDbEntity
  8
RS Linia rozgraniczajaca DW 833
 48
6.0
100
AcDbLine
 39
0.35
 10
7585262.929999998
 20
5646686.360000001
 30
0.0
 11
7585228.280000001
 21
5646705.759999999
 31
0.0
  0
LINE
  5
5C2
330
1F
100
AcDbEntity
  8
RS Linia rozgraniczajaca DW 833
 48
6.0
100
AcDbLine
 39
0.35
 10
7585228.280000001
 20
5646705.759999999
 30
0.0
 11
7585218.94
 21
5646712.36
 31
0.0
  0
LINE
  5
5C3
330
1F
100
AcDbEntity
  8
RS Linia rozgraniczajaca DW 833
 48
6.0
100
AcDbLine
 39
0.35
 10
7585218.94
 20
5646712.36
 30
0.0
 11
7585155.636217998
 21
5646752.380725001
 31
0.0
  0
LINE
  5
5C4
330
1F
100
AcDbEntity
  8
RS Linia rozgraniczajaca DW 833
 48
6.0
100
AcDbLine
 39
0.35
 10
7585155.636217998
 20
5646752.380725001
 30
0.0
 11
7585150.694689998
 21
5646755.095754
 31
0.0
  0
LINE
  5
5C5
330
1F
100
AcDbEntity
  8
RS Linia rozgraniczajaca DW 833
 48
6.0
100
AcDbLine
 39
0.35
 10
7585150.694689998
 20
5646755.095754
 30
0.0
 11
7585139.636416
 21
5646762.306974999
 31
0.0
  0
LINE
  5
5C6
330
1F
100
AcDbEntity
  8
RS Linia rozgraniczajaca DW 833
 48
6.0
100
AcDbLine
 39
0.35
 10
7585139.636416
 20
5646762.306974999
 30
0.0
 11
7585073.759999999
 21
5646799.929999999
 31
0.0
  0
LINE
  5
5C7
330
1F
100
AcDbEntity
  8
RS Linia rozgraniczajaca DW 833
 48
6.0
100
AcDbLine
 39
0.35
 10
7585073.759999999
 20
5646799.929999999
 30
0.0
 11
7585063.269999999
 21
5646805.269999999
 31
0.0
  0
LINE
  5
5C8
330
1F
100
AcDbEntity
  8
RS Linia rozgraniczajaca DW 833
 48
6.0
100
AcDbLine
 39
0.35
 10
7585063.269999999
 20
5646805.269999999
 30
0.0
 11
7584970.880000001
 21
5646851.41
 31
0.0
  0
LINE
  5
5C9
330
1F
100
AcDbEntity
  8
RS Linia rozgraniczajaca DW 833
 48
6.0
100
AcDbLine
 39
0.35
 10
7584970.880000001
 20
5646851.41
 30
0.0
 11
7584905.679999999
 21
5646877.58
 31
0.0
  0
LINE
  5
5CA
330
1F
100
AcDbEntity
  8
RS Linia rozgraniczajaca DW 833
 48
6.0
100
AcDbLine
 39
0.35
 10
7584905.679999999
 20
5646877.58
 30
0.0
 11
7584896.16
 21
5646883.38
 31
0.0
  0
LINE
  5
5CB
330
1F
100
AcDbEntity
  8
RS Linia rozgraniczajaca DW 833
 48
6.0
100
AcDbLine
 39
0.35
 10
7584896.16
 20
5646883.38
 30
0.0
 11
7584880.739432999
 21
5646887.928303999
 31
0.0
  0
LINE
  5
5CC
330
1F
100
AcDbEntity
  8
RS Linia rozgraniczajaca DW 833
 48
6.0
100
AcDbLine
 39
0.35
 10
7584880.739432999
 20
5646887.928303999
 30
0.0
 11
7584859.880878999
 21
5646893.841874
 31
0.0
  0
LINE
  5
5CD
330
1F
100
AcDbEntity
  8
RS Linia rozgraniczajaca DW 833
 48
6.0
100
AcDbLine
 39
0.35
 10
7584859.880878999
 20
5646893.841874
 30
0.0
 11
7584841.739435999
 21
5646880.663808999
 31
0.0
  0
LINE
  5
5CE
330
1F
100
AcDbEntity
  8
RS Linia rozgraniczajaca DW 833
 48
6.0
100
AcDbLine
 39
0.35
 10
7584841.739435999
 20
5646880.663808999
 30
0.0
 11
7584825.019999999
 21
5646880.94
 31
0.0
  0
LINE
  5
5CF
330
1F
100
AcDbEntity
  8
RS Linia rozgraniczajaca DW 833
 48
6.0
100
AcDbLine
 39
0.35
 10
7584825.019999999
 20
5646880.94
 30
0.0
 11
7584819.92
 21
5646881.030000001
 31
0.0
  0
LINE
  5
5D0
330
1F
100
AcDbEntity
  8
RS Linia rozgraniczajaca DW 833
 48
6.0
100
AcDbLine
 39
0.35
 10
7584819.92
 20
5646881.030000001
 30
0.0
 11
7584819.69
 21
5646882.0
 31
0.0
  0
LINE
  5
5D1
330
1F
100
AcDbEntity
  8
RS Linia rozgraniczajaca DW 833
 48
6.0
100
AcDbLine
 39
0.35
 10
7584819.69
 20
5646882.0
 30
0.0
 11
7584810.521358
 21
5646885.104903
 31
0.0
  0
LINE
  5
5D2
330
1F
100
AcDbEntity
  8
RS Linia rozgraniczajaca DW 833
 48
6.0
100
AcDbLine
 39
0.35
 10
7584810.521358
 20
5646885.104903
 30
0.0
 11
7584805.509999998
 21
5646870.230000001
 31
0.0
  0
LINE
  5
5D3
330
1F
100
AcDbEntity
  8
RS Linia rozgraniczajaca DW 833
 48
6.0
100
AcDbLine
 39
0.35
 10
7584805.509999998
 20
5646870.230000001
 30
0.0
 11
7584802.628914998
 21
5646861.676084999
 31
0.0
  0
LINE
  5
5D4
330
1F
100
AcDbEntity
  8
RS Linia rozgraniczajaca DW 833
 48
6.0
100
AcDbLine
 39
0.35
 10
7584802.628914998
 20
5646861.676084999
 30
0.0
 11
7584786.568431999
 21
5646872.966699
 31
0.0
  0
LINE
  5
5D5
330
1F
100
AcDbEntity
  8
RS Linia rozgraniczajaca DW 833
 48
6.0
100
AcDbLine
 39
0.35
 10
7584786.568431999
 20
5646872.966699
 30
0.0
 11
7584776.599996999
 21
5646902.120001
 31
0.0
  0
LINE
  5
5D6
330
1F
100
AcDbEntity
  8
RS Linia rozgraniczajaca DW 833
 48
6.0
100
AcDbLine
 39
0.35
 10
7584776.599996999
 20
5646902.120001
 30
0.0
 11
7584763.67
 21
5646907.210000001
 31
0.0
  0
LINE
  5
5D7
330
1F
100
AcDbEntity
  8
RS Linia rozgraniczajaca DW 833
 48
6.0
100
AcDbLine
 39
0.35
 10
7584763.67
 20
5646907.210000001
 30
0.0
 11
7584769.631672998
 21
5646922.695728
 31
0.0
  0
LINE
  5
5D8
330
1F
100
AcDbEntity
  8
RS Linia rozgraniczajaca DW 833
 48
6.0
100
AcDbLine
 39
0.35
 10
7584769.631672998
 20
5646922.695728
 30
0.0
 11
7584744.220288
 21
5646932.695615
 31
0.0
  0
LINE
  5
5D9
330
1F
100
AcDbEntity
  8
RS Linia rozgraniczajaca DW 833
 48
6.0
100
AcDbLine
 39
0.35
 10
7584744.220288
 20
5646932.695615
 30
0.0
 11
7584665.168848998
 21
5646963.148204999
 31
0.0
  0
LINE
  5
5DA
330
1F
100
AcDbEntity
  8
RS Linia rozgraniczajaca DW 833
 48
6.0
100
AcDbLine
 39
0.35
 10
7584665.168848998
 20
5646963.148204999
 30
0.0
 11
7584609.673575999
 21
5646982.572655
 31
0.0
  0
LINE
  5
5DB
330
1F
100
AcDbEntity
  8
RS Linia rozgraniczajaca DW 833
 48
6.0
100
AcDbLine
 39
0.35
 10
7584609.673575999
 20
5646982.572655
 30
0.0
 11
7584519.769999999
 21
5647017.16
 31
0.0
  0
LINE
  5
5DC
330
1F
100
AcDbEntity
  8
RS Linia rozgraniczajaca DW 833
 48
6.0
100
AcDbLine
 39
0.35
 10
7584519.769999999
 20
5647017.16
 30
0.0
 11
7584449.659331998
 21
5647040.807008001
 31
0.0
  0
LINE
  5
5DD
330
1F
100
AcDbEntity
  8
RS Linia rozgraniczajaca DW 833
 48
6.0
100
AcDbLine
 39
0.35
 10
7584449.659331998
 20
5647040.807008001
 30
0.0
 11
7584382.156518001
 21
5647064.397912999
 31
0.0
  0
LINE
  5
5DE
330
1F
100
AcDbEntity
  8
RS Linia rozgraniczajaca DW 833
 48
6.0
100
AcDbLine
 39
0.35
 10
7584382.156518001
 20
5647064.397912999
 30
0.0
 11
7584342.448900001
 21
5647077.859007
 31
0.0
  0
LINE
  5
5DF
330
1F
100
AcDbEntity
  8
RS Linia rozgraniczajaca DW 833
 48
6.0
100
AcDbLine
 39
0.35
 10
7584342.448900001
 20
5647077.859007
 30
0.0
 11
7584334.671652001
 21
5647081.542265
 31
0.0
  0
LINE
  5
5E0
330
1F
100
AcDbEntity
  8
RS Linia rozgraniczajaca DW 833
 48
6.0
100
AcDbLine
 39
0.35
 10
7584334.671652001
 20
5647081.542265
 30
0.0
 11
7584242.910566999
 21
5647119.953166
 31
0.0
  0
LINE
  5
5E1
330
1F
100
AcDbEntity
  8
RS Linia rozgraniczajaca DW 833
 48
6.0
100
AcDbLine
 39
0.35
 10
7584242.910566999
 20
5647119.953166
 30
0.0
 11
7584176.060745
 21
5647145.102681999
 31
0.0
  0
LINE
  5
5E2
330
1F
100
AcDbEntity
  8
RS Linia rozgraniczajaca DW 833
 48
6.0
100
AcDbLine
 39
0.35
 10
7584176.060745
 20
5647145.102681999
 30
0.0
 11
7584093.398578998
 21
5647176.400506
 31
0.0
  0
LINE
  5
5E3
330
1F
100
AcDbEntity
  8
RS Linia rozgraniczajaca DW 833
 48
6.0
100
AcDbLine
 39
0.35
 10
7584093.398578998
 20
5647176.400506
 30
0.0
 11
7584055.150871998
 21
5647192.764859002
 31
0.0
  0
LINE
  5
5E4
330
1F
100
AcDbEntity
  8
RS Linia rozgraniczajaca DW 833
 48
6.0
100
AcDbLine
 39
0.35
 10
7584055.150871998
 20
5647192.764859002
 30
0.0
 11
7583993.004215
 21
5647219.312769999
 31
0.0
  0
LINE
  5
5E5
330
1F
100
AcDbEntity
  8
RS Linia rozgraniczajaca DW 833
 48
6.0
100
AcDbLine
 39
0.35
 10
7583993.004215
 20
5647219.312769999
 30
0.0
 11
7583856.887497662
 21
5647281.459926603
 31
0.0
  0
LINE
  5
5E6
330
1F
100
AcDbEntity
  8
RS Linia rozgraniczajaca DW 833
 48
6.0
100
AcDbLine
 39
0.35
 10
7583856.887497662
 20
5647281.459926603
 30
0.0
 11
7583822.017001998
 21
5647294.240467
 31
0.0
  0
LINE
  5
5E7
330
1F
100
AcDbEntity
  8
RS Linia rozgraniczajaca DW 833
 48
6.0
100
AcDbLine
 39
0.35
 10
7583822.017001998
 20
5647294.240467
 30
0.0
 11
7583786.445740998
 21
5647308.619396
 31
0.0
  0
LINE
  5
5E8
330
1F
100
AcDbEntity
  8
RS Linia rozgraniczajaca DW 833
 48
6.0
100
AcDbLine
 39
0.35
 10
7583786.445740998
 20
5647308.619396
 30
0.0
 11
7583784.15
 21
5647302.4
 31
0.0
  0
LINE
  5
5E9
330
1F
100
AcDbEntity
  8
RS Linia rozgraniczajaca DW 833
 48
6.0
100
AcDbLine
 39
0.35
 10
7583784.15
 20
5647302.4
 30
0.0
 11
7583778.011017
 21
5647285.972877
 31
0.0
  0
LINE
  5
5EA
330
1F
100
AcDbEntity
  8
RS Linia rozgraniczajaca DW 833
 48
6.0
100
AcDbLine
 39
0.35
 10
7583778.011017
 20
5647285.972877
 30
0.0
 11
7583733.254665999
 21
5647302.824635
 31
0.0
  0
LINE
  5
5EB
330
1F
100
AcDbEntity
  8
RS Linia rozgraniczajaca DW 833
 48
6.0
100
AcDbLine
 39
0.35
 10
7583733.254665999
 20
5647302.824635
 30
0.0
 11
7583742.146021001
 21
5647326.414200001
 31
0.0
  0
LINE
  5
5EC
330
1F
100
AcDbEntity
  8
RS Linia rozgraniczajaca DW 833
 48
6.0
100
AcDbLine
 39
0.35
 10
7583742.146021001
 20
5647326.414200001
 30
0.0
 11
7583671.240498624
 21
5647359.228992321
 31
0.0
  0
LINE
  5
5ED
330
1F
100
AcDbEntity
  8
RS Linia rozgraniczajaca DW 833
 48
6.0
100
AcDbLine
 39
0.35
 10
7583671.240498624
 20
5647359.228992321
 30
0.0
 11
7583574.399334999
 21
5647412.538131
 31
0.0
  0
LINE
  5
5EE
330
1F
100
AcDbEntity
  8
RS Linia rozgraniczajaca DW 833
 48
6.0
100
AcDbLine
 39
0.35
 10
7583574.399334999
 20
5647412.538131
 30
0.0
 11
7583575.559999999
 21
5647415.68
 31
0.0
  0
LINE
  5
5EF
330
1F
100
AcDbEntity
  8
RS Linia rozgraniczajaca DW 833
 48
6.0
100
AcDbLine
 39
0.35
 10
7583575.559999999
 20
5647415.68
 30
0.0
 11
7583577.115994
 21
5647419.865087
 31
0.0
  0
LINE
  5
5F0
330
1F
100
AcDbEntity
  8
RS Linia rozgraniczajaca DW 833
 48
6.0
100
AcDbLine
 39
0.35
 10
7583577.115994
 20
5647419.865087
 30
0.0
 11
7583573.076806999
 21
5647422.462828
 31
0.0
  0
LINE
  5
5F1
330
1F
100
AcDbEntity
  8
RS Linia rozgraniczajaca DW 833
 48
6.0
100
AcDbLine
 39
0.35
 10
7583573.076806999
 20
5647422.462828
 30
0.0
 11
7583557.33295042
 21
5647428.166742641
 31
0.0
  0
LINE
  5
5F2
330
1F
100
AcDbEntity
  8
RS Linia rozgraniczajaca DW 833
 48
6.0
100
AcDbLine
 39
0.35
 10
7583557.33295042
 20
5647428.166742641
 30
0.0
 11
7583559.255973
 21
5647432.992528
 31
0.0
  0
LINE
  5
5F3
330
1F
100
AcDbEntity
  8
RS Linia rozgraniczajaca DW 833
 48
6.0
100
AcDbLine
 39
0.35
 10
7583559.255973
 20
5647432.992528
 30
0.0
 11
7583426.582421
 21
5647544.879255
 31
0.0
  0
LINE
  5
5F4
330
1F
100
AcDbEntity
  8
RS Linia rozgraniczajaca DW 833
 48
6.0
100
AcDbLine
 39
0.35
 10
7583426.582421
 20
5647544.879255
 30
0.0
 11
7583413.787678978
 21
5647551.092581026
 31
0.0
  0
LINE
  5
5F5
330
1F
100
AcDbEntity
  8
RS Linia rozgraniczajaca DW 833
 48
6.0
100
AcDbLine
 39
0.35
 10
7583413.787678978
 20
5647551.092581026
 30
0.0
 11
7583383.4177
 21
5647555.494589
 31
0.0
  0
LINE
  5
5F6
330
1F
100
AcDbEntity
  8
RS Linia rozgraniczajaca DW 833
 48
6.0
100
AcDbLine
 39
0.35
 10
7583383.4177
 20
5647555.494589
 30
0.0
 11
7583358.612563
 21
5647549.570611
 31
0.0
  0
LINE
  5
5F7
330
1F
100
AcDbEntity
  8
RS Linia rozgraniczajaca DW 833
 48
6.0
100
AcDbLine
 39
0.35
 10
7583358.612563
 20
5647549.570611
 30
0.0
 11
7583347.023392
 21
5647536.160786001
 31
0.0
  0
LINE
  5
5F8
330
1F
100
AcDbEntity
  8
RS Linia rozgraniczajaca DW 833
 48
6.0
100
AcDbLine
 39
0.35
 10
7583347.023392
 20
5647536.160786001
 30
0.0
 11
7583366.073109
 21
5647508.969700001
 31
0.0
  0
LINE
  5
5F9
330
1F
100
AcDbEntity
  8
RS Linia rozgraniczajaca DW 833
 48
6.0
100
AcDbLine
 39
0.35
 10
7583361.644905087
 20
5647505.9921094
 30
0.0
 11
7583366.073109
 21
5647508.969700001
 31
0.0
  0
LINE
  5
5FA
330
1F
100
AcDbEntity
  8
RS Linia rozgraniczajaca DW 833
 48
6.0
100
AcDbLine
 39
0.35
 10
7583366.073109
 20
5647508.969700001
 30
0.0
 11
7583337.499575001
 21
5647489.756428
 31
0.0
  0
LINE
  5
5FB
330
1F
100
AcDbEntity
  8
RS Linia rozgraniczajaca DW 833
 48
6.0
100
AcDbLine
 39
0.35
 10
7583337.499575001
 20
5647489.756428
 30
0.0
 11
7583329.33
 21
5647498.01
 31
0.0
  0
LINE
  5
5FC
330
1F
100
AcDbEntity
  8
RS Linia rozgraniczajaca DW 833
 48
6.0
100
AcDbLine
 39
0.35
 10
7583329.33
 20
5647498.01
 30
0.0
 11
7583324.63
 21
5647502.76
 31
0.0
  0
LINE
  5
5FD
330
1F
100
AcDbEntity
  8
RS Linia rozgraniczajaca DW 833
 48
6.0
100
AcDbLine
 39
0.35
 10
7583324.63
 20
5647502.76
 30
0.0
 11
7583293.776058998
 21
5647520.260657
 31
0.0
  0
LINE
  5
5FE
330
1F
100
AcDbEntity
  8
RS Linia rozgraniczajaca DW 833
 48
6.0
100
AcDbLine
 39
0.35
 10
7583293.776058998
 20
5647520.260657
 30
0.0
 11
7583257.765156998
 21
5647521.210987
 31
0.0
  0
LINE
  5
5FF
330
1F
100
AcDbEntity
  8
RS Linia rozgraniczajaca DW 833
 48
6.0
100
AcDbLine
 39
0.35
 10
7583257.765156998
 20
5647521.210987
 30
0.0
 11
7583255.427801998
 21
5647543.904803001
 31
0.0
  0
LINE
  5
600
330
1F
100
AcDbEntity
  8
RS Linia rozgraniczajaca DW 833
 48
6.0
100
AcDbLine
 39
0.35
 10
7583255.427801998
 20
5647543.904803001
 30
0.0
 11
7583265.74
 21
5647545.29
 31
0.0
  0
LINE
  5
601
330
1F
100
AcDbEntity
  8
RS Linia rozgraniczajaca DW 833
 48
6.0
100
AcDbLine
 39
0.35
 10
7583265.74
 20
5647545.29
 30
0.0
 11
7583270.929999998
 21
5647545.980000001
 31
0.0
  0
LINE
  5
602
330
1F
100
AcDbEntity
  8
RS Linia rozgraniczajaca DW 833
 48
6.0
100
AcDbLine
 39
0.35
 10
7583270.929999998
 20
5647545.980000001
 30
0.0
 11
7583272.219999998
 21
5647546.860000001
 31
0.0
  0
LINE
  5
603
330
1F
100
AcDbEntity
  8
RS Linia rozgraniczajaca DW 833
 48
6.0
100
AcDbLine
 39
0.35
 10
7583272.219999998
 20
5647546.860000001
 30
0.0
 11
7583278.26
 21
5647550.96
 31
0.0
  0
LINE
  5
604
330
1F
100
AcDbEntity
  8
RS Linia rozgraniczajaca DW 833
 48
6.0
100
AcDbLine
 39
0.35
 10
7583278.26
 20
5647550.96
 30
0.0
 11
7583278.73
 21
5647559.94
 31
0.0
  0
LINE
  5
605
330
1F
100
AcDbEntity
  8
RS Linia rozgraniczajaca DW 833
 48
6.0
100
AcDbLine
 39
0.35
 10
7583278.73
 20
5647559.94
 30
0.0
 11
7583272.901607
 21
5647569.550324
 31
0.0
  0
LINE
  5
606
330
1F
100
AcDbEntity
  8
RS Linia rozgraniczajaca DW 833
 48
6.0
100
AcDbLine
 39
0.35
 10
7583272.901607
 20
5647569.550324
 30
0.0
 11
7583219.314441999
 21
5647634.190143
 31
0.0
  0
LINE
  5
607
330
1F
100
AcDbEntity
  8
RS Linia rozgraniczajaca DW 833
 48
6.0
100
AcDbLine
 39
0.35
 10
7583219.314441999
 20
5647634.190143
 30
0.0
 11
7583196.617066997
 21
5647660.197124999
 31
0.0
  0
LINE
  5
608
330
1F
100
AcDbEntity
  8
RS Linia rozgraniczajaca DW 833
 48
6.0
100
AcDbLine
 39
0.35
 10
7583196.617066997
 20
5647660.197124999
 30
0.0
 11
7582928.039087999
 21
5647980.927824
 31
0.0
  0
LINE
  5
609
330
1F
100
AcDbEntity
  8
RS Linia rozgraniczajaca DW 833
 48
6.0
100
AcDbLine
 39
0.35
 10
7582928.039087999
 20
5647980.927824
 30
0.0
 11
7582919.394510001
 21
5647981.400928
 31
0.0
  0
LINE
  5
60A
330
1F
100
AcDbEntity
  8
RS Linia rozgraniczajaca DW 833
 48
6.0
100
AcDbLine
 39
0.35
 10
7582919.394510001
 20
5647981.400928
 30
0.0
 11
7582908.857772
 21
5647994.055174
 31
0.0
  0
LINE
  5
60B
330
1F
100
AcDbEntity
  8
RS Linia rozgraniczajaca DW 833
 48
6.0
100
AcDbLine
 39
0.35
 10
7582908.857772
 20
5647994.055174
 30
0.0
 11
7582909.243417
 21
5648002.70088
 31
0.0
  0
LINE
  5
60C
330
1F
100
AcDbEntity
  8
RS Linia rozgraniczajaca DW 833
 48
6.0
100
AcDbLine
 39
0.35
 10
7582909.243417
 20
5648002.70088
 30
0.0
 11
7582842.289403999
 21
5648081.888725999
 31
0.0
  0
LINE
  5
60D
330
1F
100
AcDbEntity
  8
RS Linia rozgraniczajaca DW 833
 48
6.0
100
AcDbLine
 39
0.35
 10
7582842.289403999
 20
5648081.888725999
 30
0.0
 11
7582832.028472897
 21
5648090.783439815
 31
0.0
  0
LINE
  5
60E
330
1F
100
AcDbEntity
  8
RS Linia rozgraniczajaca DW 833
 48
6.0
100
AcDbLine
 39
0.35
 10
7582832.028472897
 20
5648090.783439815
 30
0.0
 11
7582807.530000001
 21
5648112.02
 31
0.0
  0
LINE
  5
60F
330
1F
100
AcDbEntity
  8
RS Linia rozgraniczajaca DW 833
 48
6.0
100
AcDbLine
 39
0.35
 10
7582807.530000001
 20
5648112.02
 30
0.0
 11
7582785.257022001
 21
5648136.345258
 31
0.0
  0
LINE
  5
610
330
1F
100
AcDbEntity
  8
RS Linia rozgraniczajaca DW 833
 48
6.0
100
AcDbLine
 39
0.35
 10
7582785.257022001
 20
5648136.345258
 30
0.0
 11
7582772.747797
 21
5648135.637543
 31
0.0
  0
LINE
  5
611
330
1F
100
AcDbEntity
  8
RS Linia rozgraniczajaca DW 833
 48
6.0
100
AcDbLine
 39
0.35
 10
7582772.747797
 20
5648135.637543
 30
0.0
 11
7582755.012639999
 21
5648161.001601001
 31
0.0
  0
LINE
  5
612
330
1F
100
AcDbEntity
  8
RS Linia rozgraniczajaca DW 833
 48
6.0
100
AcDbLine
 39
0.35
 10
7582755.012639999
 20
5648161.001601001
 30
0.0
 11
7582760.139999999
 21
5648163.77
 31
0.0
  0
LINE
  5
613
330
1F
100
AcDbEntity
  8
RS Linia rozgraniczajaca DW 833
 48
6.0
100
AcDbLine
 39
0.35
 10
7582760.139999999
 20
5648163.77
 30
0.0
 11
7582763.37
 21
5648172.269999999
 31
0.0
  0
LINE
  5
614
330
1F
100
AcDbEntity
  8
RS Linia rozgraniczajaca DW 833
 48
6.0
100
AcDbLine
 39
0.35
 10
7582763.37
 20
5648172.269999999
 30
0.0
 11
7582732.452137999
 21
5648210.778502
 31
0.0
  0
LINE
  5
615
330
1F
100
AcDbEntity
  8
RS Linia rozgraniczajaca DW 833
 48
6.0
100
AcDbLine
 39
0.35
 10
7582732.452137999
 20
5648210.778502
 30
0.0
 11
7582691.179999999
 21
5648259.740000001
 31
0.0
  0
LINE
  5
616
330
1F
100
AcDbEntity
  8
RS Linia rozgraniczajaca DW 833
 48
6.0
100
AcDbLine
 39
0.35
 10
7582691.179999999
 20
5648259.740000001
 30
0.0
 11
7582682.758335001
 21
5648267.609289
 31
0.0
  0
LINE
  5
617
330
1F
100
AcDbEntity
  8
RS Linia rozgraniczajaca DW 833
 48
6.0
100
AcDbLine
 39
0.35
 10
7582682.758335001
 20
5648267.609289
 30
0.0
 11
7582657.691158
 21
5648296.537718
 31
0.0
  0
LINE
  5
618
330
1F
100
AcDbEntity
  8
RS Linia rozgraniczajaca DW 833
 48
6.0
100
AcDbLine
 39
0.35
 10
7582657.691158
 20
5648296.537718
 30
0.0
 11
7582644.087051001
 21
5648291.552562
 31
0.0
  0
LINE
  5
619
330
1F
100
AcDbEntity
  8
RS Linia rozgraniczajaca DW 833
 48
6.0
100
AcDbLine
 39
0.35
 10
7582644.087051001
 20
5648291.552562
 30
0.0
 11
7582628.001648
 21
5648306.567927
 31
0.0
  0
LINE
  5
61A
330
1F
100
AcDbEntity
  8
RS Linia rozgraniczajaca DW 833
 48
6.0
100
AcDbLine
 39
0.35
 10
7582628.001648
 20
5648306.567927
 30
0.0
 11
7582637.950038
 21
5648319.290233001
 31
0.0
  0
LINE
  5
61B
330
1F
100
AcDbEntity
  8
RS Linia rozgraniczajaca DW 833
 48
6.0
100
AcDbLine
 39
0.35
 10
7582637.950038
 20
5648319.290233001
 30
0.0
 11
7582631.79
 21
5648326.320000001
 31
0.0
  0
LINE
  5
61C
330
1F
100
AcDbEntity
  8
RS Linia rozgraniczajaca DW 833
 48
6.0
100
AcDbLine
 39
0.35
 10
7582631.79
 20
5648326.320000001
 30
0.0
 11
7582581.88
 21
5648383.260000001
 31
0.0
  0
LINE
  5
61D
330
1F
100
AcDbEntity
  8
RS Linia rozgraniczajaca DW 833
 48
6.0
100
AcDbLine
 39
0.35
 10
7582581.88
 20
5648383.260000001
 30
0.0
 11
7582569.848090998
 21
5648397.418715001
 31
0.0
  0
LINE
  5
61E
330
1F
100
AcDbEntity
  8
RS Linia rozgraniczajaca DW 833
 48
6.0
100
AcDbLine
 39
0.35
 10
7582569.848090998
 20
5648397.418715001
 30
0.0
 11
7582563.305591
 21
5648392.901719001
 31
0.0
  0
LINE
  5
61F
330
1F
100
AcDbEntity
  8
RS Linia rozgraniczajaca DW 833
 48
6.0
100
AcDbLine
 39
0.35
 10
7582563.305591
 20
5648392.901719001
 30
0.0
 11
7582549.358457001
 21
5648408.505907
 31
0.0
  0
LINE
  5
620
330
1F
100
AcDbEntity
  8
RS Linia rozgraniczajaca DW 833
 48
6.0
100
AcDbLine
 39
0.35
 10
7582549.358457001
 20
5648408.505907
 30
0.0
 11
7582540.213397
 21
5648400.842017999
 31
0.0
  0
LINE
  5
621
330
1F
100
AcDbEntity
  8
RS Linia rozgraniczajaca DW 833
 48
6.0
100
AcDbLine
 39
0.35
 10
7582540.213397
 20
5648400.842017999
 30
0.0
 11
7582520.204288
 21
5648424.041752
 31
0.0
  0
LINE
  5
622
330
1F
100
AcDbEntity
  8
RS Linia rozgraniczajaca DW 833
 48
6.0
100
AcDbLine
 39
0.35
 10
7582520.204288
 20
5648424.041752
 30
0.0
 11
7582512.880195
 21
5648425.754786
 31
0.0
  0
LINE
  5
623
330
1F
100
AcDbEntity
  8
RS Linia rozgraniczajaca DW 833
 48
6.0
100
AcDbLine
 39
0.35
 10
7582512.880195
 20
5648425.754786
 30
0.0
 11
7582521.91
 21
5648433.71
 31
0.0
  0
LINE
  5
624
330
1F
100
AcDbEntity
  8
RS Linia rozgraniczajaca DW 833
 48
6.0
100
AcDbLine
 39
0.35
 10
7582521.91
 20
5648433.71
 30
0.0
 11
7582480.240000001
 21
5648490.28
 31
0.0
  0
LINE
  5
625
330
1F
100
AcDbEntity
  8
RS Linia rozgraniczajaca DW 833
 48
6.0
100
AcDbLine
 39
0.35
 10
7582480.240000001
 20
5648490.28
 30
0.0
 11
7582471.159999999
 21
5648502.61
 31
0.0
  0
LINE
  5
626
330
1F
100
AcDbEntity
  8
RS Linia rozgraniczajaca DW 833
 48
6.0
100
AcDbLine
 39
0.35
 10
7582471.159999999
 20
5648502.61
 30
0.0
 11
7582431.71109
 21
5648556.902435
 31
0.0
  0
LINE
  5
627
330
1F
100
AcDbEntity
  8
RS Linia rozgraniczajaca DW 833
 48
6.0
100
AcDbLine
 39
0.35
 10
7582431.71109
 20
5648556.902435
 30
0.0
 11
7582411.126312999
 21
5648565.350666
 31
0.0
  0
LINE
  5
628
330
1F
100
AcDbEntity
  8
RS Linia rozgraniczajaca DW 833
 48
6.0
100
AcDbLine
 39
0.35
 10
7582411.126312999
 20
5648565.350666
 30
0.0
 11
7582399.311723
 21
5648582.497487
 31
0.0
  0
LINE
  5
629
330
1F
100
AcDbEntity
  8
RS Linia rozgraniczajaca DW 833
 48
6.0
100
AcDbLine
 39
0.35
 10
7582399.311723
 20
5648582.497487
 30
0.0
 11
7582399.026947
 21
5648593.905444998
 31
0.0
  0
LINE
  5
62A
330
1F
100
AcDbEntity
  8
RS Linia rozgraniczajaca DW 833
 48
6.0
100
AcDbLine
 39
0.35
 10
7582399.026947
 20
5648593.905444998
 30
0.0
 11
7582385.29334
 21
5648618.389156998
 31
0.0
  0
LINE
  5
62B
330
1F
100
AcDbEntity
  8
RS Linia rozgraniczajaca DW 833
 48
6.0
100
AcDbLine
 39
0.35
 10
7582385.29334
 20
5648618.389156998
 30
0.0
 11
7582316.63
 21
5648702.45
 31
0.0
  0
LINE
  5
62C
330
1F
100
AcDbEntity
  8
RS Linia rozgraniczajaca DW 833
 48
6.0
100
AcDbLine
 39
0.35
 10
7582316.63
 20
5648702.45
 30
0.0
 11
7582310.13
 21
5648710.05
 31
0.0
  0
LINE
  5
62D
330
1F
100
AcDbEntity
  8
RS Linia rozgraniczajaca DW 833
 48
6.0
100
AcDbLine
 39
0.35
 10
7582310.13
 20
5648710.05
 30
0.0
 11
7582212.278591998
 21
5648822.894841999
 31
0.0
  0
LINE
  5
62E
330
1F
100
AcDbEntity
  8
RS Linia rozgraniczajaca DW 833
 48
6.0
100
AcDbLine
 39
0.35
 10
7582212.278591998
 20
5648822.894841999
 30
0.0
 11
7582141.019999999
 21
5648910.09
 31
0.0
  0
LINE
  5
62F
330
1F
100
AcDbEntity
  8
RS Linia rozgraniczajaca DW 833
 48
6.0
100
AcDbLine
 39
0.35
 10
7582141.019999999
 20
5648910.09
 30
0.0
 11
7582135.190000001
 21
5648916.94
 31
0.0
  0
LINE
  5
630
330
1F
100
AcDbEntity
  8
RS Linia rozgraniczajaca DW 833
 48
6.0
100
AcDbLine
 39
0.35
 10
7582135.190000001
 20
5648916.94
 30
0.0
 11
7582055.59
 21
5649007.259999999
 31
0.0
  0
LINE
  5
631
330
1F
100
AcDbEntity
  8
RS Linia rozgraniczajaca DW 833
 48
6.0
100
AcDbLine
 39
0.35
 10
7582055.59
 20
5649007.259999999
 30
0.0
 11
7582049.75
 21
5649014.11
 31
0.0
  0
LINE
  5
632
330
1F
100
AcDbEntity
  8
RS Linia rozgraniczajaca DW 833
 48
6.0
100
AcDbLine
 39
0.35
 10
7582049.75
 20
5649014.11
 30
0.0
 11
7581969.711648999
 21
5649108.946348
 31
0.0
  0
LINE
  5
633
330
1F
100
AcDbEntity
  8
RS Linia rozgraniczajaca DW 833
 48
6.0
100
AcDbLine
 39
0.35
 10
7581969.711648999
 20
5649108.946348
 30
0.0
 11
7581887.37
 21
5649204.580000001
 31
0.0
  0
LINE
  5
634
330
1F
100
AcDbEntity
  8
RS Linia rozgraniczajaca DW 833
 48
6.0
100
AcDbLine
 39
0.35
 10
7581887.37
 20
5649204.580000001
 30
0.0
 11
7581883.160000001
 21
5649209.519999999
 31
0.0
  0
LINE
  5
635
330
1F
100
AcDbEntity
  8
RS Linia rozgraniczajaca DW 833
 48
6.0
100
AcDbLine
 39
0.35
 10
7581883.160000001
 20
5649209.519999999
 30
0.0
 11
7581798.210095
 21
5649304.447727001
 31
0.0
  0
LINE
  5
636
330
1F
100
AcDbEntity
  8
RS Linia rozgraniczajaca DW 833
 48
6.0
100
AcDbLine
 39
0.35
 10
7581798.210095
 20
5649304.447727001
 30
0.0
 11
7581755.305135
 21
5649362.744674
 31
0.0
  0
LINE
  5
637
330
1F
100
AcDbEntity
  8
RS Linia rozgraniczajaca DW 833
 48
6.0
100
AcDbLine
 39
0.35
 10
7581755.305135
 20
5649362.744674
 30
0.0
 11
7581726.360000001
 21
5649399.099999999
 31
0.0
  0
LINE
  5
638
330
1F
100
AcDbEntity
  8
RS Linia rozgraniczajaca DW 833
 48
6.0
100
AcDbLine
 39
0.35
 10
7581726.360000001
 20
5649399.099999999
 30
0.0
 11
7581715.99
 21
5649411.31
 31
0.0
  0
LINE
  5
639
330
1F
100
AcDbEntity
  8
RS Linia rozgraniczajaca DW 833
 48
6.0
100
AcDbLine
 39
0.35
 10
7581715.99
 20
5649411.31
 30
0.0
 11
7581715.99
 21
5649411.31
 31
0.0
  0
LINE
  5
63A
330
1F
100
AcDbEntity
  8
RS Linia rozgraniczajaca DW 833
 48
6.0
100
AcDbLine
 39
0.35
 10
7581715.99
 20
5649411.31
 30
0.0
 11
7581705.37
 21
5649423.82
 31
0.0
  0
LINE
  5
63B
330
1F
100
AcDbEntity
  8
RS Linia rozgraniczajaca DW 833
 48
6.0
100
AcDbLine
 39
0.35
 10
7581705.37
 20
5649423.82
 30
0.0
 11
7581705.37
 21
5649423.82
 31
0.0
  0
LINE
  5
63C
330
1F
100
AcDbEntity
  8
RS Linia rozgraniczajaca DW 833
 48
6.0
100
AcDbLine
 39
0.35
 10
7581705.37
 20
5649423.82
 30
0.0
 11
7581690.400000001
 21
5649441.44
 31
0.0
  0
LINE
  5
63D
330
1F
100
AcDbEntity
  8
RS Linia rozgraniczajaca DW 833
 48
6.0
100
AcDbLine
 39
0.35
 10
7581690.400000001
 20
5649441.44
 30
0.0
 11
7581690.400000001
 21
5649441.44
 31
0.0
  0
LINE
  5
63E
330
1F
100
AcDbEntity
  8
RS Linia rozgraniczajaca DW 833
 48
6.0
100
AcDbLine
 39
0.35
 10
7581690.400000001
 20
5649441.44
 30
0.0
 11
7581686.77
 21
5649445.68
 31
0.0
  0
LINE
  5
63F
330
1F
100
AcDbEntity
  8
RS Linia rozgraniczajaca DW 833
 48
6.0
100
AcDbLine
 39
0.35
 10
7581686.77
 20
5649445.68
 30
0.0
 11
7581673.429999999
 21
5649461.26
 31
0.0
  0
LINE
  5
640
330
1F
100
AcDbEntity
  8
RS Linia rozgraniczajaca DW 833
 48
6.0
100
AcDbLine
 39
0.35
 10
7581673.429999999
 20
5649461.26
 30
0.0
 11
7581673.429999999
 21
5649461.26
 31
0.0
  0
LINE
  5
641
330
1F
100
AcDbEntity
  8
RS Linia rozgraniczajaca DW 833
 48
6.0
100
AcDbLine
 39
0.35
 10
7581673.429999999
 20
5649461.26
 30
0.0
 11
7581667.117749874
 21
5649468.552956333
 31
0.0
  0
LINE
  5
642
330
1F
100
AcDbEntity
  8
RS Linia rozgraniczajaca DW 833
 48
6.0
100
AcDbLine
 39
0.35
 10
7581667.117749874
 20
5649468.552956333
 30
0.0
 11
7581664.64
 21
5649471.53
 31
0.0
  0
LINE
  5
643
330
1F
100
AcDbEntity
  8
RS Linia rozgraniczajaca DW 833
 48
6.0
100
AcDbLine
 39
0.35
 10
7581664.64
 20
5649471.53
 30
0.0
 11
7581655.1
 21
5649482.67
 31
0.0
  0
LINE
  5
644
330
1F
100
AcDbEntity
  8
RS Linia rozgraniczajaca DW 833
 48
6.0
100
AcDbLine
 39
0.35
 10
7581655.1
 20
5649482.67
 30
0.0
 11
7581655.1
 21
5649482.67
 31
0.0
  0
LINE
  5
645
330
1F
100
AcDbEntity
  8
RS Linia rozgraniczajaca DW 833
 48
6.0
100
AcDbLine
 39
0.35
 10
7581655.1
 20
5649482.67
 30
0.0
 11
7581647.09
 21
5649492.02
 31
0.0
  0
LINE
  5
646
330
1F
100
AcDbEntity
  8
RS Linia rozgraniczajaca DW 833
 48
6.0
100
AcDbLine
 39
0.35
 10
7581647.09
 20
5649492.02
 30
0.0
 11
7581641.09246322
 21
5649499.031767367
 31
0.0
  0
LINE
  5
647
330
1F
100
AcDbEntity
  8
RS Linia rozgraniczajaca DW 833
 48
6.0
100
AcDbLine
 39
0.35
 10
7581641.09246322
 20
5649499.031767367
 30
0.0
 11
7581655.673548904
 21
5649511.300729478
 31
0.0
  0
LINE
  5
648
330
1F
100
AcDbEntity
  8
RS Linia rozgraniczajaca DW 833
 48
6.0
100
AcDbLine
 39
0.35
 10
7581655.673548904
 20
5649511.300729478
 30
0.0
 11
7581657.26
 21
5649509.44
 31
0.0
  0
LINE
  5
649
330
1F
100
AcDbEntity
  8
RS Linia rozgraniczajaca DW 833
 48
6.0
100
AcDbLine
 39
0.35
 10
7581657.26
 20
5649509.44
 30
0.0
 11
7581670.08
 21
5649494.4
 31
0.0
  0
LINE
  5
64A
330
1F
100
AcDbEntity
  8
RS Linia rozgraniczajaca DW 833
 48
6.0
100
AcDbLine
 39
0.35
 10
7581670.08
 20
5649494.4
 30
0.0
 11
7581670.08
 21
5649494.4
 31
0.0
  0
LINE
  5
64B
330
1F
100
AcDbEntity
  8
RS Linia rozgraniczajaca DW 833
 48
6.0
100
AcDbLine
 39
0.35
 10
7581670.08
 20
5649494.4
 30
0.0
 11
7581682.820000001
 21
5649479.46
 31
0.0
  0
LINE
  5
64C
330
1F
100
AcDbEntity
  8
RS Linia rozgraniczajaca DW 833
 48
6.0
100
AcDbLine
 39
0.35
 10
7581682.820000001
 20
5649479.46
 30
0.0
 11
7581682.820000001
 21
5649479.46
 31
0.0
  0
LINE
  5
64D
330
1F
100
AcDbEntity
  8
RS Linia rozgraniczajaca DW 833
 48
6.0
100
AcDbLine
 39
0.35
 10
7581682.820000001
 20
5649479.46
 30
0.0
 11
7581688.150000001
 21
5649473.21
 31
0.0
  0
LINE
  5
64E
330
1F
100
AcDbEntity
  8
RS Linia rozgraniczajaca DW 833
 48
6.0
100
AcDbLine
 39
0.35
 10
7581688.150000001
 20
5649473.21
 30
0.0
 11
7581699.969999999
 21
5649459.36
 31
0.0
  0
LINE
  5
64F
330
1F
100
AcDbEntity
  8
RS Linia rozgraniczajaca DW 833
 48
6.0
100
AcDbLine
 39
0.35
 10
7581699.969999999
 20
5649459.36
 30
0.0
 11
7581700.66
 21
5649458.55
 31
0.0
  0
LINE
  5
650
330
1F
100
AcDbEntity
  8
RS Linia rozgraniczajaca DW 833
 48
6.0
100
AcDbLine
 39
0.35
 10
7581700.66
 20
5649458.55
 30
0.0
 11
7581704.64
 21
5649453.89
 31
0.0
  0
LINE
  5
651
330
1F
100
AcDbEntity
  8
RS Linia rozgraniczajaca DW 833
 48
6.0
100
AcDbLine
 39
0.35
 10
7581704.64
 20
5649453.89
 30
0.0
 11
7581713.950000001
 21
5649443.0
 31
0.0
  0
LINE
  5
652
330
1F
100
AcDbEntity
  8
RS Linia rozgraniczajaca DW 833
 48
6.0
100
AcDbLine
 39
0.35
 10
7581713.950000001
 20
5649443.0
 30
0.0
 11
7581721.260348498
 21
5649434.439924753
 31
0.0
  0
LINE
  5
653
330
1F
100
AcDbEntity
  8
RS Linia rozgraniczajaca DW 833
 48
6.0
100
AcDbLine
 39
0.35
 10
7581721.260348498
 20
5649434.439924753
 30
0.0
 11
7581727.17
 21
5649427.519999999
 31
0.0
  0
LINE
  5
654
330
1F
100
AcDbEntity
  8
RS Linia rozgraniczajaca DW 833
 48
6.0
100
AcDbLine
 39
0.35
 10
7581727.17
 20
5649427.519999999
 30
0.0
 11
7581747.556492
 21
5649412.604100998
 31
0.0
  0
LINE
  5
655
330
1F
100
AcDbEntity
  8
RS Linia rozgraniczajaca DW 833
 48
6.0
100
AcDbLine
 39
0.35
 10
7581747.556492
 20
5649412.604100998
 30
0.0
 11
7581753.180514998
 21
5649406.837565
 31
0.0
  0
LINE
  5
656
330
1F
100
AcDbEntity
  8
RS Linia rozgraniczajaca DW 833
 48
6.0
100
AcDbLine
 39
0.35
 10
7581753.180514998
 20
5649406.837565
 30
0.0
 11
7581759.798835
 21
5649395.744249
 31
0.0
  0
LINE
  5
657
330
1F
100
AcDbEntity
  8
RS Linia rozgraniczajaca DW 833
 48
6.0
100
AcDbLine
 39
0.35
 10
7581759.798835
 20
5649395.744249
 30
0.0
 11
7581779.427942999
 21
5649368.028493
 31
0.0
  0
LINE
  5
658
330
1F
100
AcDbEntity
  8
RS Linia rozgraniczajaca DW 833
 48
6.0
100
AcDbLine
 39
0.35
 10
7581779.427942999
 20
5649368.028493
 30
0.0
 11
7581784.988342
 21
5649369.16491
 31
0.0
  0
LINE
  5
659
330
1F
100
AcDbEntity
  8
RS Linia rozgraniczajaca DW 833
 48
6.0
100
AcDbLine
 39
0.35
 10
7581784.988342
 20
5649369.16491
 30
0.0
 11
7581794.194992999
 21
5649357.933587
 31
0.0
  0
LINE
  5
65A
330
1F
100
AcDbEntity
  8
RS Linia rozgraniczajaca DW 833
 48
6.0
100
AcDbLine
 39
0.35
 10
7581794.194992999
 20
5649357.933587
 30
0.0
 11
7581791.866692998
 21
5649353.21485
 31
0.0
  0
LINE
  5
65B
330
1F
100
AcDbEntity
  8
RS Linia rozgraniczajaca DW 833
 48
6.0
100
AcDbLine
 39
0.35
 10
7581791.866692998
 20
5649353.21485
 30
0.0
 11
7581829.199378997
 21
5649318.002513999
 31
0.0
  0
LINE
  5
65C
330
1F
100
AcDbEntity
  8
RS Linia rozgraniczajaca DW 833
 48
6.0
100
AcDbLine
 39
0.35
 10
7581829.199378997
 20
5649318.002513999
 30
0.0
 11
7581837.515033001
 21
5649307.118718
 31
0.0
  0
LINE
  5
65D
330
1F
100
AcDbEntity
  8
RS Linia rozgraniczajaca DW 833
 48
6.0
100
AcDbLine
 39
0.35
 10
7581837.515033001
 20
5649307.118718
 30
0.0
 11
7581845.556478001
 21
5649304.858548999
 31
0.0
  0
LINE
  5
65E
330
1F
100
AcDbEntity
  8
RS Linia rozgraniczajaca DW 833
 48
6.0
100
AcDbLine
 39
0.35
 10
7581845.556478001
 20
5649304.858548999
 30
0.0
 11
7581849.820396999
 21
5649299.685901
 31
0.0
  0
LINE
  5
65F
330
1F
100
AcDbEntity
  8
RS Linia rozgraniczajaca DW 833
 48
6.0
100
AcDbLine
 39
0.35
 10
7581849.820396999
 20
5649299.685901
 30
0.0
 11
7581850.157978
 21
5649291.184216
 31
0.0
  0
LINE
  5
660
330
1F
100
AcDbEntity
  8
RS Linia rozgraniczajaca DW 833
 48
6.0
100
AcDbLine
 39
0.35
 10
7581850.157978
 20
5649291.184216
 30
0.0
 11
7581889.400000001
 21
5649239.210000001
 31
0.0
  0
LINE
  5
661
330
1F
100
AcDbEntity
  8
RS Linia rozgraniczajaca DW 833
 48
6.0
100
AcDbLine
 39
0.35
 10
7581889.400000001
 20
5649239.210000001
 30
0.0
 11
7581909.343461999
 21
5649213.954363999
 31
0.0
  0
LINE
  5
662
330
1F
100
AcDbEntity
  8
RS Linia rozgraniczajaca DW 833
 48
6.0
100
AcDbLine
 39
0.35
 10
7581909.343461999
 20
5649213.954363999
 30
0.0
 11
7581944.44
 21
5649177.66
 31
0.0
  0
LINE
  5
663
330
1F
100
AcDbEntity
  8
RS Linia rozgraniczajaca DW 833
 48
6.0
100
AcDbLine
 39
0.35
 10
7581944.44
 20
5649177.66
 30
0.0
 11
7581949.960000001
 21
5649171.19
 31
0.0
  0
LINE
  5
664
330
1F
100
AcDbEntity
  8
RS Linia rozgraniczajaca DW 833
 48
6.0
100
AcDbLine
 39
0.35
 10
7581949.960000001
 20
5649171.19
 30
0.0
 11
7581986.611092
 21
5649129.875787
 31
0.0
  0
LINE
  5
665
330
1F
100
AcDbEntity
  8
RS Linia rozgraniczajaca DW 833
 48
6.0
100
AcDbLine
 39
0.35
 10
7581986.611092
 20
5649129.875787
 30
0.0
 11
7582005.552780999
 21
5649103.362228999
 31
0.0
  0
LINE
  5
666
330
1F
100
AcDbEntity
  8
RS Linia rozgraniczajaca DW 833
 48
6.0
100
AcDbLine
 39
0.35
 10
7582005.552780999
 20
5649103.362228999
 30
0.0
 11
7582031.766137999
 21
5649076.509877
 31
0.0
  0
LINE
  5
667
330
1F
100
AcDbEntity
  8
RS Linia rozgraniczajaca DW 833
 48
6.0
100
AcDbLine
 39
0.35
 10
7582031.766137999
 20
5649076.509877
 30
0.0
 11
7582074.361623
 21
5649021.644084
 31
0.0
  0
LINE
  5
668
330
1F
100
AcDbEntity
  8
RS Linia rozgraniczajaca DW 833
 48
6.0
100
AcDbLine
 39
0.35
 10
7582074.361623
 20
5649021.644084
 30
0.0
 11
7582118.49
 21
5648968.990000001
 31
0.0
  0
LINE
  5
669
330
1F
100
AcDbEntity
  8
RS Linia rozgraniczajaca DW 833
 48
6.0
100
AcDbLine
 39
0.35
 10
7582118.49
 20
5648968.990000001
 30
0.0
 11
7582165.857076001
 21
5648914.846628998
 31
0.0
  0
LINE
  5
66A
330
1F
100
AcDbEntity
  8
RS Linia rozgraniczajaca DW 833
 48
6.0
100
AcDbLine
 39
0.35
 10
7582165.857076001
 20
5648914.846628998
 30
0.0
 11
7582186.483321
 21
5648893.025643999
 31
0.0
  0
LINE
  5
66B
330
1F
100
AcDbEntity
  8
RS Linia rozgraniczajaca DW 833
 48
6.0
100
AcDbLine
 39
0.35
 10
7582186.483321
 20
5648893.025643999
 30
0.0
 11
7582194.179999999
 21
5648883.099999999
 31
0.0
  0
LINE
  5
66C
330
1F
100
AcDbEntity
  8
RS Linia rozgraniczajaca DW 833
 48
6.0
100
AcDbLine
 39
0.35
 10
7582194.179999999
 20
5648883.099999999
 30
0.0
 11
7582200.009999999
 21
5648876.24
 31
0.0
  0
LINE
  5
66D
330
1F
100
AcDbEntity
  8
RS Linia rozgraniczajaca DW 833
 48
6.0
100
AcDbLine
 39
0.35
 10
7582200.009999999
 20
5648876.24
 30
0.0
 11
7582214.172217001
 21
5648860.768925
 31
0.0
  0
LINE
  5
66E
330
1F
100
AcDbEntity
  8
RS Linia rozgraniczajaca DW 833
 48
6.0
100
AcDbLine
 39
0.35
 10
7582214.172217001
 20
5648860.768925
 30
0.0
 11
7582246.671931999
 21
5648827.992928
 31
0.0
  0
LINE
  5
66F
330
1F
100
AcDbEntity
  8
RS Linia rozgraniczajaca DW 833
 48
6.0
100
AcDbLine
 39
0.35
 10
7582246.671931999
 20
5648827.992928
 30
0.0
 11
7582256.639999999
 21
5648808.88
 31
0.0
  0
LINE
  5
670
330
1F
100
AcDbEntity
  8
RS Linia rozgraniczajaca DW 833
 48
6.0
100
AcDbLine
 39
0.35
 10
7582256.639999999
 20
5648808.88
 30
0.0
 11
7582279.12
 21
5648784.88
 31
0.0
  0
LINE
  5
671
330
1F
100
AcDbEntity
  8
RS Linia rozgraniczajaca DW 833
 48
6.0
100
AcDbLine
 39
0.35
 10
7582279.12
 20
5648784.88
 30
0.0
 11
7582284.309999998
 21
5648778.79
 31
0.0
  0
LINE
  5
672
330
1F
100
AcDbEntity
  8
RS Linia rozgraniczajaca DW 833
 48
6.0
100
AcDbLine
 39
0.35
 10
7582284.309999998
 20
5648778.79
 30
0.0
 11
7582317.146882001
 21
5648735.045920999
 31
0.0
  0
LINE
  5
673
330
1F
100
AcDbEntity
  8
RS Linia rozgraniczajaca DW 833
 48
6.0
100
AcDbLine
 39
0.35
 10
7582317.146882001
 20
5648735.045920999
 30
0.0
 11
7582368.481936998
 21
5648678.401654
 31
0.0
  0
LINE
  5
674
330
1F
100
AcDbEntity
  8
RS Linia rozgraniczajaca DW 833
 48
6.0
100
AcDbLine
 39
0.35
 10
7582368.481936998
 20
5648678.401654
 30
0.0
 11
7582403.476852999
 21
5648642.03995
 31
0.0
  0
LINE
  5
675
330
1F
100
AcDbEntity
  8
RS Linia rozgraniczajaca DW 833
 48
6.0
100
AcDbLine
 39
0.35
 10
7582403.476852999
 20
5648642.03995
 30
0.0
 11
7582424.463708
 21
5648628.961586999
 31
0.0
  0
LINE
  5
676
330
1F
100
AcDbEntity
  8
RS Linia rozgraniczajaca DW 833
 48
6.0
100
AcDbLine
 39
0.35
 10
7582424.463708
 20
5648628.961586999
 30
0.0
 11
7582455.530162
 21
5648626.195899002
 31
0.0
  0
LINE
  5
677
330
1F
100
AcDbEntity
  8
RS Linia rozgraniczajaca DW 833
 48
6.0
100
AcDbLine
 39
0.35
 10
7582455.530162
 20
5648626.195899002
 30
0.0
 11
7582471.733926001
 21
5648630.609919999
 31
0.0
  0
LINE
  5
678
330
1F
100
AcDbEntity
  8
RS Linia rozgraniczajaca DW 833
 48
6.0
100
AcDbLine
 39
0.35
 10
7582471.733926001
 20
5648630.609919999
 30
0.0
 11
7582517.549321001
 21
5648650.264158
 31
0.0
  0
LINE
  5
679
330
1F
100
AcDbEntity
  8
RS Linia rozgraniczajaca DW 833
 48
6.0
100
AcDbLine
 39
0.35
 10
7582517.549321001
 20
5648650.264158
 30
0.0
 11
7582518.732088998
 21
5648648.208893
 31
0.0
  0
LINE
  5
67A
330
1F
100
AcDbEntity
  8
RS Linia rozgraniczajaca DW 833
 48
6.0
100
AcDbLine
 39
0.35
 10
7582518.732088998
 20
5648648.208893
 30
0.0
 11
7582463.070289
 21
5648617.026624
 31
0.0
  0
LINE
  5
67B
330
1F
100
AcDbEntity
  8
RS Linia rozgraniczajaca DW 833
 48
6.0
100
AcDbLine
 39
0.35
 10
7582463.070289
 20
5648617.026624
 30
0.0
 11
7582468.539197588
 21
5648608.119269121
 31
0.0
  0
LINE
  5
67C
330
1F
100
AcDbEntity
  8
RS Linia rozgraniczajaca DW 833
 48
6.0
100
AcDbLine
 39
0.35
 10
7582468.539197588
 20
5648608.119269121
 30
0.0
 11
7582523.987641
 21
5648638.892988
 31
0.0
  0
LINE
  5
67D
330
1F
100
AcDbEntity
  8
RS Linia rozgraniczajaca DW 833
 48
6.0
100
AcDbLine
 39
0.35
 10
7582523.987641
 20
5648638.892988
 30
0.0
 11
7582476.895332
 21
5648605.067224999
 31
0.0
  0
LINE
  5
67E
330
1F
100
AcDbEntity
  8
RS Linia rozgraniczajaca DW 833
 48
6.0
100
AcDbLine
 39
0.35
 10
7582476.895332
 20
5648605.067224999
 30
0.0
 11
7582466.346048001
 21
5648574.307652
 31
0.0
  0
LINE
  5
67F
330
1F
100
AcDbEntity
  8
RS Linia rozgraniczajaca DW 833
 48
6.0
100
AcDbLine
 39
0.35
 10
7582466.346048001
 20
5648574.307652
 30
0.0
 11
7582472.139375
 21
5648557.788776001
 31
0.0
  0
LINE
  5
680
330
1F
100
AcDbEntity
  8
RS Linia rozgraniczajaca DW 833
 48
6.0
100
AcDbLine
 39
0.35
 10
7582472.139375
 20
5648557.788776001
 30
0.0
 11
7582492.973341998
 21
5648526.026864
 31
0.0
  0
LINE
  5
681
330
1F
100
AcDbEntity
  8
RS Linia rozgraniczajaca DW 833
 48
6.0
100
AcDbLine
 39
0.35
 10
7582492.973341998
 20
5648526.026864
 30
0.0
 11
7582504.671659001
 21
5648512.892978001
 31
0.0
  0
LINE
  5
682
330
1F
100
AcDbEntity
  8
RS Linia rozgraniczajaca DW 833
 48
6.0
100
AcDbLine
 39
0.35
 10
7582504.671659001
 20
5648512.892978001
 30
0.0
 11
7582512.498491001
 21
5648504.794928
 31
0.0
  0
LINE
  5
683
330
1F
100
AcDbEntity
  8
RS Linia rozgraniczajaca DW 833
 48
6.0
100
AcDbLine
 39
0.35
 10
7582512.498491001
 20
5648504.794928
 30
0.0
 11
7582516.416237
 21
5648503.204288
 31
0.0
  0
LINE
  5
684
330
1F
100
AcDbEntity
  8
RS Linia rozgraniczajaca DW 833
 48
6.0
100
AcDbLine
 39
0.35
 10
7582516.416237
 20
5648503.204288
 30
0.0
 11
7582520.507586999
 21
5648502.346543
 31
0.0
  0
LINE
  5
685
330
1F
100
AcDbEntity
  8
RS Linia rozgraniczajaca DW 833
 48
6.0
100
AcDbLine
 39
0.35
 10
7582520.507586999
 20
5648502.346543
 30
0.0
 11
7582519.8157
 21
5648497.063168
 31
0.0
  0
LINE
  5
686
330
1F
100
AcDbEntity
  8
RS Linia rozgraniczajaca DW 833
 48
6.0
100
AcDbLine
 39
0.35
 10
7582519.8157
 20
5648497.063168
 30
0.0
 11
7582524.951880999
 21
5648493.00849
 31
0.0
  0
LINE
  5
687
330
1F
100
AcDbEntity
  8
RS Linia rozgraniczajaca DW 833
 48
6.0
100
AcDbLine
 39
0.35
 10
7582524.951880999
 20
5648493.00849
 30
0.0
 11
7582548.678705001
 21
5648468.026576999
 31
0.0
  0
LINE
  5
688
330
1F
100
AcDbEntity
  8
RS Linia rozgraniczajaca DW 833
 48
6.0
100
AcDbLine
 39
0.35
 10
7582548.678705001
 20
5648468.026576999
 30
0.0
 11
7582559.588106
 21
5648455.70571
 31
0.0
  0
LINE
  5
689
330
1F
100
AcDbEntity
  8
RS Linia rozgraniczajaca DW 833
 48
6.0
100
AcDbLine
 39
0.35
 10
7582559.588106
 20
5648455.70571
 30
0.0
 11
7582567.770323
 21
5648446.614532
 31
0.0
  0
LINE
  5
68A
330
1F
100
AcDbEntity
  8
RS Linia rozgraniczajaca DW 833
 48
6.0
100
AcDbLine
 39
0.35
 10
7582567.770323
 20
5648446.614532
 30
0.0
 11
7582576.620118999
 21
5648447.538829
 31
0.0
  0
LINE
  5
68B
330
1F
100
AcDbEntity
  8
RS Linia rozgraniczajaca DW 833
 48
6.0
100
AcDbLine
 39
0.35
 10
7582576.620118999
 20
5648447.538829
 30
0.0
 11
7582580.426033999
 21
5648456.095847999
 31
0.0
  0
LINE
  5
68C
330
1F
100
AcDbEntity
  8
RS Linia rozgraniczajaca DW 833
 48
6.0
100
AcDbLine
 39
0.35
 10
7582580.426033999
 20
5648456.095847999
 30
0.0
 11
7582589.089592998
 21
5648464.077565001
 31
0.0
  0
LINE
  5
68D
330
1F
100
AcDbEntity
  8
RS Linia rozgraniczajaca DW 833
 48
6.0
100
AcDbLine
 39
0.35
 10
7582589.089592998
 20
5648464.077565001
 30
0.0
 11
7582580.08
 21
5648445.109999999
 31
0.0
  0
LINE
  5
68E
330
1F
100
AcDbEntity
  8
RS Linia rozgraniczajaca DW 833
 48
6.0
100
AcDbLine
 39
0.35
 10
7582580.08
 20
5648445.109999999
 30
0.0
 11
7582593.079998998
 21
5648434.957102
 31
0.0
  0
LINE
  5
68F
330
1F
100
AcDbEntity
  8
RS Linia rozgraniczajaca DW 833
 48
6.0
100
AcDbLine
 39
0.35
 10
7582593.079998998
 20
5648434.957102
 30
0.0
 11
7582591.984516999
 21
5648424.162932
 31
0.0
  0
LINE
  5
690
330
1F
100
AcDbEntity
  8
RS Linia rozgraniczajaca DW 833
 48
6.0
100
AcDbLine
 39
0.35
 10
7582591.984516999
 20
5648424.162932
 30
0.0
 11
7582608.218434999
 21
5648406.85707
 31
0.0
  0
LINE
  5
691
330
1F
100
AcDbEntity
  8
RS Linia rozgraniczajaca DW 833
 48
6.0
100
AcDbLine
 39
0.35
 10
7582608.218434999
 20
5648406.85707
 30
0.0
 11
7582630.847144998
 21
5648385.766024
 31
0.0
  0
LINE
  5
692
330
1F
100
AcDbEntity
  8
RS Linia rozgraniczajaca DW 833
 48
6.0
100
AcDbLine
 39
0.35
 10
7582630.847144998
 20
5648385.766024
 30
0.0
 11
7582641.28
 21
5648373.03
 31
0.0
  0
LINE
  5
693
330
1F
100
AcDbEntity
  8
RS Linia rozgraniczajaca DW 833
 48
6.0
100
AcDbLine
 39
0.35
 10
7582641.28
 20
5648373.03
 30
0.0
 11
7582662.319880999
 21
5648346.282224
 31
0.0
  0
LINE
  5
694
330
1F
100
AcDbEntity
  8
RS Linia rozgraniczajaca DW 833
 48
6.0
100
AcDbLine
 39
0.35
 10
7582662.319880999
 20
5648346.282224
 30
0.0
 11
7582669.694454998
 21
5648349.14672
 31
0.0
  0
LINE
  5
695
330
1F
100
AcDbEntity
  8
RS Linia rozgraniczajaca DW 833
 48
6.0
100
AcDbLine
 39
0.35
 10
7582669.694454998
 20
5648349.14672
 30
0.0
 11
7582678.312856
 21
5648359.939070001
 31
0.0
  0
LINE
  5
696
330
1F
100
AcDbEntity
  8
RS Linia rozgraniczajaca DW 833
 48
6.0
100
AcDbLine
 39
0.35
 10
7582678.312856
 20
5648359.939070001
 30
0.0
 11
7582684.02804
 21
5648362.525802999
 31
0.0
  0
LINE
  5
697
330
1F
100
AcDbEntity
  8
RS Linia rozgraniczajaca DW 833
 48
6.0
100
AcDbLine
 39
0.35
 10
7582684.02804
 20
5648362.525802999
 30
0.0
 11
7582671.05
 21
5648346.669999999
 31
0.0
  0
LINE
  5
698
330
1F
100
AcDbEntity
  8
RS Linia rozgraniczajaca DW 833
 48
6.0
100
AcDbLine
 39
0.35
 10
7582671.05
 20
5648346.669999999
 30
0.0
 11
7582680.403407533
 21
5648339.08723753
 31
0.0
  0
LINE
  5
699
330
1F
100
AcDbEntity
  8
RS Linia rozgraniczajaca DW 833
 48
6.0
100
AcDbLine
 39
0.35
 10
7582680.403407533
 20
5648339.08723753
 30
0.0
 11
7582679.61555076
 21
5648338.116836852
 31
0.0
  0
LINE
  5
69A
330
1F
100
AcDbEntity
  8
RS Linia rozgraniczajaca DW 833
 48
6.0
100
AcDbLine
 39
0.35
 10
7582679.61555076
 20
5648338.116836852
 30
0.0
 11
7582682.226390002
 21
5648331.650871999
 31
0.0
  0
LINE
  5
69B
330
1F
100
AcDbEntity
  8
RS Linia rozgraniczajaca DW 833
 48
6.0
100
AcDbLine
 39
0.35
 10
7582682.226390002
 20
5648331.650871999
 30
0.0
 11
7582679.814443999
 21
5648321.390234
 31
0.0
  0
LINE
  5
69C
330
1F
100
AcDbEntity
  8
RS Linia rozgraniczajaca DW 833
 48
6.0
100
AcDbLine
 39
0.35
 10
7582679.814443999
 20
5648321.390234
 30
0.0
 11
7582710.22183
 21
5648285.499649
 31
0.0
  0
LINE
  5
69D
330
1F
100
AcDbEntity
  8
RS Linia rozgraniczajaca DW 833
 48
6.0
100
AcDbLine
 39
0.35
 10
7582710.22183
 20
5648285.499649
 30
0.0
 11
7582724.064936
 21
5648267.095783999
 31
0.0
  0
LINE
  5
69E
330
1F
100
AcDbEntity
  8
RS Linia rozgraniczajaca DW 833
 48
6.0
100
AcDbLine
 39
0.35
 10
7582724.064936
 20
5648267.095783999
 30
0.0
 11
7582739.489458
 21
5648267.98147
 31
0.0
  0
LINE
  5
69F
330
1F
100
AcDbEntity
  8
RS Linia rozgraniczajaca DW 833
 48
6.0
100
AcDbLine
 39
0.35
 10
7582739.489458
 20
5648267.98147
 30
0.0
 11
7582748.184880219
 21
5648258.154604019
 31
0.0
  0
LINE
  5
6A0
330
1F
100
AcDbEntity
  8
RS Linia rozgraniczajaca DW 833
 48
6.0
100
AcDbLine
 39
0.35
 10
7582748.184880219
 20
5648258.154604019
 30
0.0
 11
7582757.392497001
 21
5648266.09514
 31
0.0
  0
LINE
  5
6A1
330
1F
100
AcDbEntity
  8
RS Linia rozgraniczajaca DW 833
 48
6.0
100
AcDbLine
 39
0.35
 10
7582757.392497001
 20
5648266.09514
 30
0.0
 11
7582758.16
 21
5648265.38
 31
0.0
  0
LINE
  5
6A2
330
1F
100
AcDbEntity
  8
RS Linia rozgraniczajaca DW 833
 48
6.0
100
AcDbLine
 39
0.35
 10
7582758.16
 20
5648265.38
 30
0.0
 11
7582747.321417
 21
5648253.395022
 31
0.0
  0
LINE
  5
6A3
330
1F
100
AcDbEntity
  8
RS Linia rozgraniczajaca DW 833
 48
6.0
100
AcDbLine
 39
0.35
 10
7582747.321417
 20
5648253.395022
 30
0.0
 11
7582746.592667001
 21
5648246.210195
 31
0.0
  0
LINE
  5
6A4
330
1F
100
AcDbEntity
  8
RS Linia rozgraniczajaca DW 833
 48
6.0
100
AcDbLine
 39
0.35
 10
7582746.592667001
 20
5648246.210195
 30
0.0
 11
7582764.746250979
 21
5648225.493590311
 31
0.0
  0
LINE
  5
6A5
330
1F
100
AcDbEntity
  8
RS Linia rozgraniczajaca DW 833
 48
6.0
100
AcDbLine
 39
0.35
 10
7582764.746250979
 20
5648225.493590311
 30
0.0
 11
7582790.376446
 21
5648197.210341
 31
0.0
  0
LINE
  5
6A6
330
1F
100
AcDbEntity
  8
RS Linia rozgraniczajaca DW 833
 48
6.0
100
AcDbLine
 39
0.35
 10
7582790.376446
 20
5648197.210341
 30
0.0
 11
7582815.124622999
 21
5648167.982376
 31
0.0
  0
LINE
  5
6A7
330
1F
100
AcDbEntity
  8
RS Linia rozgraniczajaca DW 833
 48
6.0
100
AcDbLine
 39
0.35
 10
7582815.124622999
 20
5648167.982376
 30
0.0
 11
7582856.216052999
 21
5648118.352497999
 31
0.0
  0
LINE
  5
6A8
330
1F
100
AcDbEntity
  8
RS Linia rozgraniczajaca DW 833
 48
6.0
100
AcDbLine
 39
0.35
 10
7582856.216052999
 20
5648118.352497999
 30
0.0
 11
7583035.34288
 21
5647902.93224
 31
0.0
  0
LINE
  5
6A9
330
1F
100
AcDbEntity
  8
RS Linia rozgraniczajaca DW 833
 48
6.0
100
AcDbLine
 39
0.35
 10
7583035.34288
 20
5647902.93224
 30
0.0
 11
7583166.879687
 21
5647745.121586
 31
0.0
  0
LINE
  5
6AA
330
1F
100
AcDbEntity
  8
RS Linia rozgraniczajaca DW 833
 48
6.0
100
AcDbLine
 39
0.35
 10
7583166.879687
 20
5647745.121586
 30
0.0
 11
7583233.510700998
 21
5647664.133938
 31
0.0
  0
LINE
  5
6AB
330
1F
100
AcDbEntity
  8
RS Linia rozgraniczajaca DW 833
 48
6.0
100
AcDbLine
 39
0.35
 10
7583233.510700998
 20
5647664.133938
 30
0.0
 11
7583266.82565
 21
5647627.865248999
 31
0.0
  0
LINE
  5
6AC
330
1F
100
AcDbEntity
  8
RS Linia rozgraniczajaca DW 833
 48
6.0
100
AcDbLine
 39
0.35
 10
7583266.82565
 20
5647627.865248999
 30
0.0
 11
7583300.796950001
 21
5647590.402656
 31
0.0
  0
LINE
  5
6AD
330
1F
100
AcDbEntity
  8
RS Linia rozgraniczajaca DW 833
 48
6.0
100
AcDbLine
 39
0.35
 10
7583300.796950001
 20
5647590.402656
 30
0.0
 11
7583314.528528999
 21
5647581.514687
 31
0.0
  0
LINE
  5
6AE
330
1F
100
AcDbEntity
  8
RS Linia rozgraniczajaca DW 833
 48
6.0
100
AcDbLine
 39
0.35
 10
7583314.528528999
 20
5647581.514687
 30
0.0
 11
7583336.159670001
 21
5647578.136957
 31
0.0
  0
LINE
  5
6AF
330
1F
100
AcDbEntity
  8
RS Linia rozgraniczajaca DW 833
 48
6.0
100
AcDbLine
 39
0.35
 10
7583336.159670001
 20
5647578.136957
 30
0.0
 11
7583355.246950999
 21
5647583.906071999
 31
0.0
  0
LINE
  5
6B0
330
1F
100
AcDbEntity
  8
RS Linia rozgraniczajaca DW 833
 48
6.0
100
AcDbLine
 39
0.35
 10
7583355.246950999
 20
5647583.906071999
 30
0.0
 11
7583381.802245999
 21
5647585.125335999
 31
0.0
  0
LINE
  5
6B1
330
1F
100
AcDbEntity
  8
RS Linia rozgraniczajaca DW 833
 48
6.0
100
AcDbLine
 39
0.35
 10
7583381.802245999
 20
5647585.125335999
 30
0.0
 11
7583415.222999
 21
5647579.635908
 31
0.0
  0
LINE
  5
6B2
330
1F
100
AcDbEntity
  8
RS Linia rozgraniczajaca DW 833
 48
6.0
100
AcDbLine
 39
0.35
 10
7583415.222999
 20
5647579.635908
 30
0.0
 11
7583442.899780999
 21
5647568.545196
 31
0.0
  0
LINE
  5
6B3
330
1F
100
AcDbEntity
  8
RS Linia rozgraniczajaca DW 833
 48
6.0
100
AcDbLine
 39
0.35
 10
7583442.899780999
 20
5647568.545196
 30
0.0
 11
7583525.807784999
 21
5647500.210126001
 31
0.0
  0
LINE
  5
6B4
330
1F
100
AcDbEntity
  8
RS Linia rozgraniczajaca DW 833
 48
6.0
100
AcDbLine
 39
0.35
 10
7583525.807784999
 20
5647500.210126001
 30
0.0
 11
7583570.449195999
 21
5647481.71409
 31
0.0
  0
LINE
  5
6B5
330
1F
100
AcDbEntity
  8
RS Linia rozgraniczajaca DW 833
 48
6.0
100
AcDbLine
 39
0.35
 10
7583570.449195999
 20
5647481.71409
 30
0.0
 11
7583574.267225998
 21
5647485.801925999
 31
0.0
  0
LINE
  5
6B6
330
1F
100
AcDbEntity
  8
RS Linia rozgraniczajaca DW 833
 48
6.0
100
AcDbLine
 39
0.35
 10
7583574.267225998
 20
5647485.801925999
 30
0.0
 11
7583596.641561999
 21
5647472.349542
 31
0.0
  0
LINE
  5
6B7
330
1F
100
AcDbEntity
  8
RS Linia rozgraniczajaca DW 833
 48
6.0
100
AcDbLine
 39
0.35
 10
7583596.641561999
 20
5647472.349542
 30
0.0
 11
7583585.87
 21
5647443.400000001
 31
0.0
  0
LINE
  5
6B8
330
1F
100
AcDbEntity
  8
RS Linia rozgraniczajaca DW 833
 48
6.0
100
AcDbLine
 39
0.35
 10
7583585.87
 20
5647443.400000001
 30
0.0
 11
7583604.150000001
 21
5647434.23
 31
0.0
  0
LINE
  5
6B9
330
1F
100
AcDbEntity
  8
RS Linia rozgraniczajaca DW 833
 48
6.0
100
AcDbLine
 39
0.35
 10
7583604.150000001
 20
5647434.23
 30
0.0
 11
7583612.04
 21
5647430.27
 31
0.0
  0
LINE
  5
6BA
330
1F
100
AcDbEntity
  8
RS Linia rozgraniczajaca DW 833
 48
6.0
100
AcDbLine
 39
0.35
 10
7583612.04
 20
5647430.27
 30
0.0
 11
7583623.219999999
 21
5647424.66
 31
0.0
  0
LINE
  5
6BB
330
1F
100
AcDbEntity
  8
RS Linia rozgraniczajaca DW 833
 48
6.0
100
AcDbLine
 39
0.35
 10
7583623.219999999
 20
5647424.66
 30
0.0
 11
7583631.49
 21
5647420.51
 31
0.0
  0
LINE
  5
6BC
330
1F
100
AcDbEntity
  8
RS Linia rozgraniczajaca DW 833
 48
6.0
100
AcDbLine
 39
0.35
 10
7583631.49
 20
5647420.51
 30
0.0
 11
7583650.549999999
 21
5647410.950000001
 31
0.0
  0
LINE
  5
6BD
330
1F
100
AcDbEntity
  8
RS Linia rozgraniczajaca DW 833
 48
6.0
100
AcDbLine
 39
0.35
 10
7583650.549999999
 20
5647410.950000001
 30
0.0
 11
7583671.129999999
 21
5647400.629999999
 31
0.0
  0
LINE
  5
6BE
330
1F
100
AcDbEntity
  8
RS Linia rozgraniczajaca DW 833
 48
6.0
100
AcDbLine
 39
0.35
 10
7583671.129999999
 20
5647400.629999999
 30
0.0
 11
7583684.2
 21
5647394.06
 31
0.0
  0
LINE
  5
6BF
330
1F
100
AcDbEntity
  8
RS Linia rozgraniczajaca DW 833
 48
6.0
100
AcDbLine
 39
0.35
 10
7583684.2
 20
5647394.06
 30
0.0
 11
7583701.12
 21
5647385.579999999
 31
0.0
  0
LINE
  5
6C0
330
1F
100
AcDbEntity
  8
RS Linia rozgraniczajaca DW 833
 48
6.0
100
AcDbLine
 39
0.35
 10
7583701.12
 20
5647385.579999999
 30
0.0
 11
7583710.759999998
 21
5647380.74
 31
0.0
  0
LINE
  5
6C1
330
1F
100
AcDbEntity
  8
RS Linia rozgraniczajaca DW 833
 48
6.0
100
AcDbLine
 39
0.35
 10
7583710.759999998
 20
5647380.74
 30
0.0
 11
7583720.099999999
 21
5647376.05
 31
0.0
  0
LINE
  5
6C2
330
1F
100
AcDbEntity
  8
RS Linia rozgraniczajaca DW 833
 48
6.0
100
AcDbLine
 39
0.35
 10
7583720.099999999
 20
5647376.05
 30
0.0
 11
7583728.17
 21
5647372.0
 31
0.0
  0
LINE
  5
6C3
330
1F
100
AcDbEntity
  8
RS Linia rozgraniczajaca DW 833
 48
6.0
100
AcDbLine
 39
0.35
 10
7583728.17
 20
5647372.0
 30
0.0
 11
7583736.88
 21
5647367.629999999
 31
0.0
  0
LINE
  5
6C4
330
1F
100
AcDbEntity
  8
RS Linia rozgraniczajaca DW 833
 48
6.0
100
AcDbLine
 39
0.35
 10
7583736.88
 20
5647367.629999999
 30
0.0
 11
7583745.87
 21
5647363.12
 31
0.0
  0
LINE
  5
6C5
330
1F
100
AcDbEntity
  8
RS Linia rozgraniczajaca DW 833
 48
6.0
100
AcDbLine
 39
0.35
 10
7583745.87
 20
5647363.12
 30
0.0
 11
7583754.36
 21
5647358.86
 31
0.0
  0
LINE
  5
6C6
330
1F
100
AcDbEntity
  8
RS Linia rozgraniczajaca DW 833
 48
6.0
100
AcDbLine
 39
0.35
 10
7583754.36
 20
5647358.86
 30
0.0
 11
7583762.769999998
 21
5647354.629999999
 31
0.0
  0
LINE
  5
6C7
330
1F
100
AcDbEntity
  8
RS Linia rozgraniczajaca DW 833
 48
6.0
100
AcDbLine
 39
0.35
 10
7583762.769999998
 20
5647354.629999999
 30
0.0
 11
7583772.91
 21
5647349.54
 31
0.0
  0
LINE
  5
6C8
330
1F
100
AcDbEntity
  8
RS Linia rozgraniczajaca DW 833
 48
6.0
100
AcDbLine
 39
0.35
 10
7583772.91
 20
5647349.54
 30
0.0
 11
7583778.96
 21
5647346.5
 31
0.0
  0
LINE
  5
6C9
330
1F
100
AcDbEntity
  8
RS Linia rozgraniczajaca DW 833
 48
6.0
100
AcDbLine
 39
0.35
 10
7583778.96
 20
5647346.5
 30
0.0
 11
7583797.08
 21
5647337.41
 31
0.0
  0
LINE
  5
6CA
330
1F
100
AcDbEntity
  8
RS Linia rozgraniczajaca DW 833
 48
6.0
100
AcDbLine
 39
0.35
 10
7583797.08
 20
5647337.41
 30
0.0
 11
7583805.0
 21
5647333.440000001
 31
0.0
  0
LINE
  5
6CB
330
1F
100
AcDbEntity
  8
RS Linia rozgraniczajaca DW 833
 48
6.0
100
AcDbLine
 39
0.35
 10
7583805.0
 20
5647333.440000001
 30
0.0
 11
7583813.45
 21
5647329.2
 31
0.0
  0
LINE
  5
6CC
330
1F
100
AcDbEntity
  8
RS Linia rozgraniczajaca DW 833
 48
6.0
100
AcDbLine
 39
0.35
 10
7583813.45
 20
5647329.2
 30
0.0
 11
7583814.389999998
 21
5647328.72
 31
0.0
  0
LINE
  5
6CD
330
1F
100
AcDbEntity
  8
RS Linia rozgraniczajaca DW 833
 48
6.0
100
AcDbLine
 39
0.35
 10
7583814.389999998
 20
5647328.72
 30
0.0
 11
7583815.41
 21
5647328.21
 31
0.0
  0
LINE
  5
6CE
330
1F
100
AcDbEntity
  8
RS Linia rozgraniczajaca DW 833
 48
6.0
100
AcDbLine
 39
0.35
 10
7583815.41
 20
5647328.21
 30
0.0
 11
7583823.38
 21
5647324.21
 31
0.0
  0
LINE
  5
6CF
330
1F
100
AcDbEntity
  8
RS Linia rozgraniczajaca DW 833
 48
6.0
100
AcDbLine
 39
0.35
 10
7583823.38
 20
5647324.21
 30
0.0
 11
7583830.62
 21
5647320.58
 31
0.0
  0
LINE
  5
6D0
330
1F
100
AcDbEntity
  8
RS Linia rozgraniczajaca DW 833
 48
6.0
100
AcDbLine
 39
0.35
 10
7583830.62
 20
5647320.58
 30
0.0
 11
7583831.8
 21
5647319.99
 31
0.0
  0
LINE
  5
6D1
330
1F
100
AcDbEntity
  8
RS Linia rozgraniczajaca DW 833
 48
6.0
100
AcDbLine
 39
0.35
 10
7583831.8
 20
5647319.99
 30
0.0
 11
7583840.04
 21
5647315.85
 31
0.0
  0
LINE
  5
6D2
330
1F
100
AcDbEntity
  8
RS Linia rozgraniczajaca DW 833
 48
6.0
100
AcDbLine
 39
0.35
 10
7583840.04
 20
5647315.85
 30
0.0
 11
7583848.38
 21
5647311.66
 31
0.0
  0
LINE
  5
6D3
330
1F
100
AcDbEntity
  8
RS Linia rozgraniczajaca DW 833
 48
6.0
100
AcDbLine
 39
0.35
 10
7583848.38
 20
5647311.66
 30
0.0
 11
7583906.224689001
 21
5647286.602571
 31
0.0
  0
LINE
  5
6D4
330
1F
100
AcDbEntity
  8
RS Linia rozgraniczajaca DW 833
 48
6.0
100
AcDbLine
 39
0.35
 10
7583906.224689001
 20
5647286.602571
 30
0.0
 11
7583923.66
 21
5647297.39
 31
0.0
  0
LINE
  5
6D5
330
1F
100
AcDbEntity
  8
RS Linia rozgraniczajaca DW 833
 48
6.0
100
AcDbLine
 39
0.35
 10
7583923.66
 20
5647297.39
 30
0.0
 11
7583953.11899
 21
5647271.897889001
 31
0.0
  0
LINE
  5
6D6
330
1F
100
AcDbEntity
  8
RS Linia rozgraniczajaca DW 833
 48
6.0
100
AcDbLine
 39
0.35
 10
7583953.11899
 20
5647271.897889001
 30
0.0
 11
7584120.286522
 21
5647199.255490001
 31
0.0
  0
LINE
  5
6D7
330
1F
100
AcDbEntity
  8
RS Linia rozgraniczajaca DW 833
 48
6.0
100
AcDbLine
 39
0.35
 10
7584120.286522
 20
5647199.255490001
 30
0.0
 11
7584134.719088
 21
5647196.223712
 31
0.0
  0
LINE
  5
6D8
330
1F
100
AcDbEntity
  8
RS Linia rozgraniczajaca DW 833
 48
6.0
100
AcDbLine
 39
0.35
 10
7584134.719088
 20
5647196.223712
 30
0.0
 11
7584163.040121
 21
5647186.089833
 31
0.0
  0
LINE
  5
6D9
330
1F
100
AcDbEntity
  8
RS Linia rozgraniczajaca DW 833
 48
6.0
100
AcDbLine
 39
0.35
 10
7584163.040121
 20
5647186.089833
 30
0.0
 11
7584171.139999998
 21
5647181.84
 31
0.0
  0
LINE
  5
6DA
330
1F
100
AcDbEntity
  8
RS Linia rozgraniczajaca DW 833
 48
6.0
100
AcDbLine
 39
0.35
 10
7584171.139999998
 20
5647181.84
 30
0.0
 11
7584187.420000001
 21
5647176.13
 31
0.0
  0
LINE
  5
6DB
330
1F
100
AcDbEntity
  8
RS Linia rozgraniczajaca DW 833
 48
6.0
100
AcDbLine
 39
0.35
 10
7584187.420000001
 20
5647176.13
 30
0.0
 11
7584204.219999999
 21
5647170.23
 31
0.0
  0
LINE
  5
6DC
330
1F
100
AcDbEntity
  8
RS Linia rozgraniczajaca DW 833
 48
6.0
100
AcDbLine
 39
0.35
 10
7584204.219999999
 20
5647170.23
 30
0.0
 11
7584212.62
 21
5647167.289999999
 31
0.0
  0
LINE
  5
6DD
330
1F
100
AcDbEntity
  8
RS Linia rozgraniczajaca DW 833
 48
6.0
100
AcDbLine
 39
0.35
 10
7584212.62
 20
5647167.289999999
 30
0.0
 11
7584221.266303
 21
5647164.796738
 31
0.0
  0
LINE
  5
6DE
330
1F
100
AcDbEntity
  8
RS Linia rozgraniczajaca DW 833
 48
6.0
100
AcDbLine
 39
0.35
 10
7584221.266303
 20
5647164.796738
 30
0.0
 11
7584230.274873999
 21
5647161.983178
 31
0.0
  0
LINE
  5
6DF
330
1F
100
AcDbEntity
  8
RS Linia rozgraniczajaca DW 833
 48
6.0
100
AcDbLine
 39
0.35
 10
7584230.274873999
 20
5647161.983178
 30
0.0
 11
7584238.751423001
 21
5647159.086238999
 31
0.0
  0
LINE
  5
6E0
330
1F
100
AcDbEntity
  8
RS Linia rozgraniczajaca DW 833
 48
6.0
100
AcDbLine
 39
0.35
 10
7584238.751423001
 20
5647159.086238999
 30
0.0
 11
7584246.48
 21
5647156.52
 31
0.0
  0
LINE
  5
6E1
330
1F
100
AcDbEntity
  8
RS Linia rozgraniczajaca DW 833
 48
6.0
100
AcDbLine
 39
0.35
 10
7584246.48
 20
5647156.52
 30
0.0
 11
7584255.047547999
 21
5647153.744412
 31
0.0
  0
LINE
  5
6E2
330
1F
100
AcDbEntity
  8
RS Linia rozgraniczajaca DW 833
 48
6.0
100
AcDbLine
 39
0.35
 10
7584255.047547999
 20
5647153.744412
 30
0.0
 11
7584271.740124998
 21
5647148.279898
 31
0.0
  0
LINE
  5
6E3
330
1F
100
AcDbEntity
  8
RS Linia rozgraniczajaca DW 833
 48
6.0
100
AcDbLine
 39
0.35
 10
7584271.740124998
 20
5647148.279898
 30
0.0
 11
7584288.475731999
 21
5647141.995666999
 31
0.0
  0
LINE
  5
6E4
330
1F
100
AcDbEntity
  8
RS Linia rozgraniczajaca DW 833
 48
6.0
100
AcDbLine
 39
0.35
 10
7584288.475731999
 20
5647141.995666999
 30
0.0
 11
7584305.549892
 21
5647135.769149
 31
0.0
  0
LINE
  5
6E5
330
1F
100
AcDbEntity
  8
RS Linia rozgraniczajaca DW 833
 48
6.0
100
AcDbLine
 39
0.35
 10
7584305.549892
 20
5647135.769149
 30
0.0
 11
7584327.11686
 21
5647128.069244001
 31
0.0
  0
LINE
  5
6E6
330
1F
100
AcDbEntity
  8
RS Linia rozgraniczajaca DW 833
 48
6.0
100
AcDbLine
 39
0.35
 10
7584327.11686
 20
5647128.069244001
 30
0.0
 11
7584375.073194999
 21
5647111.557207999
 31
0.0
  0
LINE
  5
6E7
330
1F
100
AcDbEntity
  8
RS Linia rozgraniczajaca DW 833
 48
6.0
100
AcDbLine
 39
0.35
 10
7584375.073194999
 20
5647111.557207999
 30
0.0
 11
7584397.301453
 21
5647104.890162
 31
0.0
  0
LINE
  5
6E8
330
1F
100
AcDbEntity
  8
RS Linia rozgraniczajaca DW 833
 48
6.0
100
AcDbLine
 39
0.35
 10
7584397.301453
 20
5647104.890162
 30
0.0
 11
7584409.821898845
 21
5647100.531061372
 31
0.0
  0
LINE
  5
6E9
330
1F
100
AcDbEntity
  8
RS Linia rozgraniczajaca DW 833
 48
6.0
100
AcDbLine
 39
0.35
 10
7584409.821898845
 20
5647100.531061372
 30
0.0
 11
7584426.916981727
 21
5647094.576667647
 31
0.0
  0
LINE
  5
6EA
330
1F
100
AcDbEntity
  8
RS Linia rozgraniczajaca DW 833
 48
6.0
100
AcDbLine
 39
0.35
 10
7584426.916981727
 20
5647094.576667647
 30
0.0
 11
7584461.973166001
 21
5647080.090987
 31
0.0
  0
LINE
  5
6EB
330
1F
100
AcDbEntity
  8
RS Linia rozgraniczajaca DW 833
 48
6.0
100
AcDbLine
 39
0.35
 10
7584461.973166001
 20
5647080.090987
 30
0.0
 11
7584677.890702001
 21
5646994.985324
 31
0.0
  0
LINE
  5
6EC
330
1F
100
AcDbEntity
  8
RS Linia rozgraniczajaca DW 833
 48
6.0
100
AcDbLine
 39
0.35
 10
7584677.890702001
 20
5646994.985324
 30
0.0
 11
7584761.818978998
 21
5646962.470363002
 31
0.0
  0
LINE
  5
6ED
330
1F
100
AcDbEntity
  8
RS Linia rozgraniczajaca DW 833
 48
6.0
100
AcDbLine
 39
0.35
 10
7584761.818978998
 20
5646962.470363002
 30
0.0
 11
7584782.068711469
 21
5646957.623854911
 31
0.0
  0
LINE
  5
6EE
330
1F
100
AcDbEntity
  8
RS Linia rozgraniczajaca DW 833
 48
6.0
100
AcDbLine
 39
0.35
 10
7584782.068711469
 20
5646957.623854911
 30
0.0
 11
7584803.214512398
 21
5646963.961920739
 31
0.0
  0
LINE
  5
6EF
330
1F
100
AcDbEntity
  8
RS Linia rozgraniczajaca DW 833
 48
6.0
100
AcDbLine
 39
0.35
 10
7584803.214512398
 20
5646963.961920739
 30
0.0
 11
7584825.454067001
 21
5646980.730003999
 31
0.0
  0
LINE
  5
6F0
330
1F
100
AcDbEntity
  8
RS Linia rozgraniczajaca DW 833
 48
6.0
100
AcDbLine
 39
0.35
 10
7584825.454067001
 20
5646980.730003999
 30
0.0
 11
7584844.674079
 21
5646981.379041999
 31
0.0
  0
LINE
  5
6F1
330
1F
100
AcDbEntity
  8
RS Linia rozgraniczajaca DW 833
 48
6.0
100
AcDbLine
 39
0.35
 10
7584844.674079
 20
5646981.379041999
 30
0.0
 11
7584836.32
 21
5646957.24
 31
0.0
  0
LINE
  5
6F2
330
1F
100
AcDbEntity
  8
RS Linia rozgraniczajaca DW 833
 48
6.0
100
AcDbLine
 39
0.35
 10
7584836.32
 20
5646957.24
 30
0.0
 11
7584850.18
 21
5646952.429999999
 31
0.0
  0
LINE
  5
6F3
330
1F
100
AcDbEntity
  8
RS Linia rozgraniczajaca DW 833
 48
6.0
100
AcDbLine
 39
0.35
 10
7584850.18
 20
5646952.429999999
 30
0.0
 11
7584852.42
 21
5646958.929999999
 31
0.0
  0
LINE
  5
6F4
330
1F
100
AcDbEntity
  8
RS Linia rozgraniczajaca DW 833
 48
6.0
100
AcDbLine
 39
0.35
 10
7584852.42
 20
5646958.929999999
 30
0.0
 11
7584857.79
 21
5646974.54
 31
0.0
  0
LINE
  5
6F5
330
1F
100
AcDbEntity
  8
RS Linia rozgraniczajaca DW 833
 48
6.0
100
AcDbLine
 39
0.35
 10
7584857.79
 20
5646974.54
 30
0.0
 11
7584864.349999999
 21
5646993.62
 31
0.0
  0
LINE
  5
6F6
330
1F
100
AcDbEntity
  8
RS Linia rozgraniczajaca DW 833
 48
6.0
100
AcDbLine
 39
0.35
 10
7584864.349999999
 20
5646993.62
 30
0.0
 11
7584862.327832
 21
5646976.893375
 31
0.0
  0
LINE
  5
6F7
330
1F
100
AcDbEntity
  8
RS Linia rozgraniczajaca DW 833
 48
6.0
100
AcDbLine
 39
0.35
 10
7584862.327832
 20
5646976.893375
 30
0.0
 11
7584884.520669
 21
5646951.990803
 31
0.0
  0
LINE
  5
6F8
330
1F
100
AcDbEntity
  8
RS Linia rozgraniczajaca DW 833
 48
6.0
100
AcDbLine
 39
0.35
 10
7584884.520669
 20
5646951.990803
 30
0.0
 11
7584964.356185999
 21
5646903.176869999
 31
0.0
  0
LINE
  5
6F9
330
1F
100
AcDbEntity
  8
RS Linia rozgraniczajaca DW 833
 48
6.0
100
AcDbLine
 39
0.35
 10
7584964.356185999
 20
5646903.176869999
 30
0.0
 11
7584986.970099
 21
5646889.594066
 31
0.0
  0
LINE
  5
6FA
330
1F
100
AcDbEntity
  8
RS Linia rozgraniczajaca DW 833
 48
6.0
100
AcDbLine
 39
0.35
 10
7584986.970099
 20
5646889.594066
 30
0.0
 11
7585036.226645372
 21
5646860.357794223
 31
0.0
  0
LINE
  5
6FB
330
1F
100
AcDbEntity
  8
RS Linia rozgraniczajaca DW 833
 48
6.0
100
AcDbLine
 39
0.35
 10
7585036.226645372
 20
5646860.357794223
 30
0.0
 11
7585091.42
 21
5646830.76
 31
0.0
  0
LINE
  5
6FC
330
1F
100
AcDbEntity
  8
RS Linia rozgraniczajaca DW 833
 48
6.0
100
AcDbLine
 39
0.35
 10
7585091.42
 20
5646830.76
 30
0.0
 11
7585097.095932001
 21
5646827.28971
 31
0.0
  0
LINE
  5
6FD
330
1F
100
AcDbEntity
  8
RS Linia rozgraniczajaca DW 833
 48
6.0
100
AcDbLine
 39
0.35
 10
7585097.095932001
 20
5646827.28971
 30
0.0
 11
7585105.701432
 21
5646816.523739001
 31
0.0
  0
LINE
  5
6FE
330
1F
100
AcDbEntity
  8
RS Linia rozgraniczajaca DW 833
 48
6.0
100
AcDbLine
 39
0.35
 10
7585105.701432
 20
5646816.523739001
 30
0.0
 11
7585184.165164
 21
5646768.261857
 31
0.0
  0
LINE
  5
6FF
330
1F
100
AcDbEntity
  8
RS Linia rozgraniczajaca DW 833
 48
6.0
100
AcDbLine
 39
0.35
 10
7585184.165164
 20
5646768.261857
 30
0.0
 11
7585262.569725998
 21
5646720.777113
 31
0.0
  0
LINE
  5
700
330
1F
100
AcDbEntity
  8
RS Linia rozgraniczajaca DW 833
 48
6.0
100
AcDbLine
 39
0.35
 10
7585262.569725998
 20
5646720.777113
 30
0.0
 11
7585284.839224999
 21
5646707.446021999
 31
0.0
  0
LINE
  5
701
330
1F
100
AcDbEntity
  8
RS Linia rozgraniczajaca DW 833
 48
6.0
100
AcDbLine
 39
0.35
 10
7585284.839224999
 20
5646707.446021999
 30
0.0
 11
7585326.537491998
 21
5646679.635612001
 31
0.0
  0
LINE
  5
702
330
1F
100
AcDbEntity
  8
RS Linia rozgraniczajaca DW 833
 48
6.0
100
AcDbLine
 39
0.35
 10
7585326.537491998
 20
5646679.635612001
 30
0.0
 11
7585408.758890926
 21
5646629.377531677
 31
0.0
  0
LINE
  5
703
330
1F
100
AcDbEntity
  8
RS Linia rozgraniczajaca DW 833
 48
6.0
100
AcDbLine
 39
0.35
 10
7585408.758890926
 20
5646629.377531677
 30
0.0
 11
7585436.409865
 21
5646612.902877
 31
0.0
  0
LINE
  5
704
330
1F
100
AcDbEntity
  8
RS Linia rozgraniczajaca DW 833
 48
6.0
100
AcDbLine
 39
0.35
 10
7585436.409865
 20
5646612.902877
 30
0.0
 11
7585453.82
 21
5646614.35
 31
0.0
  0
LINE
  5
705
330
1F
100
AcDbEntity
  8
RS Linia rozgraniczajaca DW 833
 48
6.0
100
AcDbLine
 39
0.35
 10
7585453.82
 20
5646614.35
 30
0.0
 11
7585476.79
 21
5646602.0
 31
0.0
  0
LINE
  5
706
330
1F
100
AcDbEntity
  8
RS Linia rozgraniczajaca DW 833
 48
6.0
100
AcDbLine
 39
0.35
 10
7585476.79
 20
5646602.0
 30
0.0
 11
7585500.561831604
 21
5646574.002670806
 31
0.0
  0
LINE
  5
707
330
1F
100
AcDbEntity
  8
RS Linia rozgraniczajaca DW 833
 48
6.0
100
AcDbLine
 39
0.35
 10
7585500.561831604
 20
5646574.002670806
 30
0.0
 11
7585509.325868838
 21
5646568.368897703
 31
0.0
  0
LINE
  5
708
330
1F
100
AcDbEntity
  8
RS Linia rozgraniczajaca DW 833
 48
6.0
100
AcDbLine
 39
0.35
 10
7585509.325868838
 20
5646568.368897703
 30
0.0
 11
7585515.849999999
 21
5646565.299999999
 31
0.0
  0
LINE
  5
709
330
1F
100
AcDbEntity
  8
RS Linia rozgraniczajaca DW 833
 48
6.0
100
AcDbLine
 39
0.35
 10
7585515.849999999
 20
5646565.299999999
 30
0.0
 11
7585521.099999998
 21
5646562.19
 31
0.0
  0
LINE
  5
70A
330
1F
100
AcDbEntity
  8
RS Linia rozgraniczajaca DW 833
 48
6.0
100
AcDbLine
 39
0.35
 10
7585521.099999998
 20
5646562.19
 30
0.0
 11
7585575.71
 21
5646526.559999999
 31
0.0
  0
LINE
  5
70B
330
1F
100
AcDbEntity
  8
RS Linia rozgraniczajaca DW 833
 48
6.0
100
AcDbLine
 39
0.35
 10
7585575.71
 20
5646526.559999999
 30
0.0
 11
7585602.42
 21
5646510.809999999
 31
0.0
  0
LINE
  5
70C
330
1F
100
AcDbEntity
  8
RS Linia rozgraniczajaca DW 833
 48
6.0
100
AcDbLine
 39
0.35
 10
7585602.42
 20
5646510.809999999
 30
0.0
 11
7585619.65
 21
5646500.64
 31
0.0
  0
LINE
  5
70D
330
1F
100
AcDbEntity
  8
RS Linia rozgraniczajaca DW 833
 48
6.0
100
AcDbLine
 39
0.35
 10
7585619.65
 20
5646500.64
 30
0.0
 11
7585631.53
 21
5646493.63
 31
0.0
  0
ENDSEC
  0
SECTION
  2
OBJECTS
  0
DICTIONARY
  5
C
330
0
100
AcDbDictionary
281
     1
  3
ACAD_CIP_PREVIOUS_PRODUCT_INFO
350
216
  3
ACAD_COLOR
350
6B
  3
ACAD_DETAILVIEWSTYLE
350
21B
  3
ACAD_GROUP
350
D
  3
ACAD_LAYOUT
350
1A
  3
ACAD_MATERIAL
350
6A
  3
ACAD_MLEADERSTYLE
350
12D
  3
ACAD_MLINESTYLE
350
17
  3
ACAD_PLOTSETTINGS
350
19
  3
ACAD_PLOTSTYLENAME
350
E
  3
ACAD_SCALELIST
350
10C
  3
ACAD_SECTIONVIEWSTYLE
350
219
  3
ACAD_TABLESTYLE
350
7E
  3
ACAD_VISUALSTYLE
350
EF
  3
ACDB_RECOMPOSE_DATA
350
714
  3
AcDbVariableDictionary
350
5E
  3
AcDsDecomposeData
350
71A
  3
AEC_PROPERTY_SET_DEFS
350
4C5
  0
DICTIONARY
  5
1FF
330
2
100
AcDbDictionary
280
     1
281
     1
  3
ACAD_LAYERSTATES
360
200
  0
DICTIONARY
  5
13C
330
10
100
AcDbDictionary
280
     1
281
     1
  0
DICTIONARY
  5
1CE
330
1F
100
AcDbDictionary
280
     1
281
     1
  0
XRECORD
  5
216
102
{ACAD_REACTORS
330
C
102
}
330
C
100
AcDbXrecord
280
     1
300
ACD
300
2018
300
ACD_F_S
  0
DICTIONARY
  5
6B
102
{ACAD_REACTORS
330
C
102
}
330
C
100
AcDbDictionary
281
     1
  0
DICTIONARY
  5
21B
102
{ACAD_REACTORS
330
C
102
}
330
C
100
AcDbDictionary
281
     1
  3
Metric50
350
21C
  0
DICTIONARY
  5
D
102
{ACAD_REACTORS
330
C
102
}
330
C
100
AcDbDictionary
281
     1
  0
DICTIONARY
  5
1A
102
{ACAD_REACTORS
330
C
102
}
330
C
100
AcDbDictionary
281
     1
  3
Model
350
22
  3
Układ1
350
D3
  3
Układ2
350
D7
  0
DICTIONARY
  5
6A
102
{ACAD_REACTORS
330
C
102
}
330
C
100
AcDbDictionary
281
     1
  3
ByBlock
350
ED
  3
ByLayer
350
EC
  3
Global
350
EE
  0
DICTIONARY
  5
12D
102
{ACAD_REACTORS
330
C
102
}
330
C
100
AcDbDictionary
281
     1
  3
Opisowy
350
13B
  3
Standard
350
12E
  0
DICTIONARY
  5
17
102
{ACAD_REACTORS
330
C
102
}
330
C
100
AcDbDictionary
281
     1
  3
Standard
350
18
  0
DICTIONARY
  5
19
102
{ACAD_REACTORS
330
C
102
}
330
C
100
AcDbDictionary
281
     1
  0
ACDBDICTIONARYWDFLT
  5
E
102
{ACAD_REACTORS
330
C
102
}
330
C
100
AcDbDictionary
281
     1
  3
Normal
350
F
100
AcDbDictionaryWithDefault
340
F
  0
DICTIONARY
  5
10C
102
{ACAD_REACTORS
330
C
102
}
330
C
100
AcDbDictionary
281
     1
  3
A0
350
10D
  3
A1
350
1BE
  3
A2
350
1BF
  3
A3
350
1C0
  3
A4
350
1C1
  3
A5
350
1C2
  3
A6
350
1C3
  3
A7
350
1C4
  3
A8
350
1C5
  3
A9
350
1C6
  3
B0
350
1C7
  3
B1
350
1C8
  3
B2
350
1C9
  3
B3
350
1CA
  3
B4
350
1CB
  3
B5
350
1CC
  3
B6
350
1CD
  0
DICTIONARY
  5
219
102
{ACAD_REACTORS
330
C
102
}
330
C
100
AcDbDictionary
281
     1
  3
Metric50
350
21A
  0
DICTIONARY
  5
7E
102
{ACAD_REACTORS
330
C
102
}
330
C
100
AcDbDictionary
281
     1
  3
Standard
350
7F
  0
DICTIONARY
  5
EF
102
{ACAD_REACTORS
330
C
102
}
330
C
100
AcDbDictionary
281
     1
  3
2dWireframe
350
F5
  3
Basic
350
F4
  3
Brighten
350
FB
  3
ColorChange
350
FF
  3
Conceptual
350
F8
  3
Dim
350
FA
  3
EdgeColorOff
350
1E6
  3
Facepattern
350
FE
  3
Flat
350
F0
  3
FlatWithEdges
350
F1
  3
Gouraud
350
F2
  3
GouraudWithEdges
350
F3
  3
Hidden
350
F7
  3
JitterOff
350
1E4
  3
Linepattern
350
FD
  3
OverhangOff
350
1E5
  3
Realistic
350
F9
  3
Shaded
350
1F3
  3
Shaded with edges
350
1F2
  3
Shades of Gray
350
1EF
  3
Sketchy
350
1F0
  3
Thicken
350
FC
  3
Wireframe
350
F6
  3
X-Ray
350
1F1
  0
XRECORD
  5
714
102
{ACAD_REACTORS
330
C
102
}
330
C
100
AcDbXrecord
280
     1
 90
        1
330
7F
  0
DICTIONARY
  5
5E
102
{ACAD_REACTORS
330
C
102
}
330
C
100
AcDbDictionary
281
     1
  3
CANNOSCALE
350
146
  3
CENTEREXE
350
259
  3
CENTERLTYPEFILE
350
25A
  3
CMLEADERSTYLE
350
145
  3
CTABLESTYLE
350
84
  3
CVIEWDETAILSTYLE
350
227
  3
CVIEWSECTIONSTYLE
350
228
  3
DIMASSOC
350
5F
  3
HIDETEXT
350
63
  3
LAYEREVAL
350
1AE
  3
LAYERNOTIFY
350
1AF
  3
LIGHTINGUNITS
350
70F
  3
MSLTSCALE
350
70E
  3
PSOLHEIGHT
350
711
  3
PSOLWIDTH
350
710
  3
XCLIPFRAME
350
712
  0
DICTIONARY
  5
71A
102
{ACAD_REACTORS
330
C
102
}
330
C
100
AcDbDictionary
281
     1
  3
AcDsRecords
350
71C
  3
AcDsSchemas
350
71B
1001
ACAD
1070
     2
  0
DICTIONARY
  5
4C5
102
{ACAD_REACTORS
330
C
102
}
330
C
100
AcDbDictionary
281
     1
  0
DICTIONARY
  5
200
102
{ACAD_REACTORS
330
1FF
102
}
330
1FF
100
AcDbDictionary
281
     1
  0
ACDBDETAILVIEWSTYLE
  5
21C
102
{ACAD_XDICTIONARY
360
753
102
}
102
{ACAD_REACTORS
330
21B
102
}
330
21B
100
AcDbModelDocViewStyle
 70
     0
  3
Metric50
290
     0
100
AcDbDetailViewStyle
 70
     0
 71
     0
 90
        3
 71
     1
340
11
 62
   256
 40
5.0
340
0
 62
   256
 40
5.0
300

 40
0.0
280
     1
 71
     2
340
16
 90
       25
 62
   256
 71
     3
340
11
 62
   256
 40
5.0
 90
        0
 40
15.0
 90
        1
300
%<\AcVar ViewDetailId>% (%<\AcVar ViewScale \f "%sn">%)
 71
     4
340
16
 90
       25
 62
   256
340
16
 90
       25
 62
   256
280
     0
  0
LAYOUT
  5
22
102
{ACAD_XDICTIONARY
360
205
102
}
102
{ACAD_REACTORS
330
1A
102
}
330
1A
100
AcDbPlotSettings
  1

  2
none_device
  4
ISO_A4_(210.00_x_297.00_MM)
  6

 40
7.5
 41
20.0
 42
7.5
 43
20.0
 44
210.0
 45
297.0
 46
11.54999923706054
 47
-13.65000009536743
 48
0.0
 49
0.0
140
0.0
141
0.0
142
1.0
143
8.704084754739808
 70
 11952
 72
     1
 73
     0
 74
     0
  7

 75
     0
147
0.1148885871608098
 76
     0
 77
     2
 78
   300
148
0.0
149
0.0
100
AcDbLayout
  1
Model
 70
     1
 71
     0
 10
0.0
 20
0.0
 11
12.0
 21
9.0
 12
0.0
 22
0.0
 32
0.0
 14
0.0
 24
0.0
 34
0.0
 15
0.0
 25
0.0
 35
0.0
146
0.0
 13
0.0
 23
0.0
 33
0.0
 16
1.0
 26
0.0
 36
0.0
 17
0.0
 27
1.0
 37
0.0
 76
     0
330
1F
331
EA
1001
ACAD_PSEXT
1000
None
1000
None
1000
Not applicable
1000
The layout will not be plotted unless a new plotter configuration name is selected.
1070
     0
  0
LAYOUT
  5
D3
102
{ACAD_REACTORS
330
1A
102
}
330
1A
100
AcDbPlotSettings
  1

  2
C:\Documents and Settings\basas\Application Data\Autodesk\AutoCAD 2005\R16.1\enu\plotters\Default Windows System Printer.pc3
  4

  6

 40
0.0
 41
0.0
 42
0.0
 43
0.0
 44
0.0
 45
0.0
 46
0.0
 47
0.0
 48
0.0
 49
0.0
140
0.0
141
0.0
142
1.0
143
1.0
 70
   688
 72
     0
 73
     0
 74
     5
  7

 75
    16
147
1.0
 76
     0
 77
     2
 78
   300
148
0.0
149
0.0
100
AcDbLayout
  1
Układ1
 70
     1
 71
     1
 10
0.0
 20
0.0
 11
12.0
 21
9.0
 12
0.0
 22
0.0
 32
0.0
 14
0.0
 24
0.0
 34
0.0
 15
0.0
 25
0.0
 35
0.0
146
0.0
 13
0.0
 23
0.0
 33
0.0
 16
1.0
 26
0.0
 36
0.0
 17
0.0
 27
1.0
 37
0.0
 76
     0
330
D2
  0
LAYOUT
  5
D7
102
{ACAD_REACTORS
330
1A
102
}
330
1A
100
AcDbPlotSettings
  1

  2
C:\Documents and Settings\basas\Application Data\Autodesk\AutoCAD 2005\R16.1\enu\plotters\Default Windows System Printer.pc3
  4

  6

 40
0.0
 41
0.0
 42
0.0
 43
0.0
 44
0.0
 45
0.0
 46
0.0
 47
0.0
 48
0.0
 49
0.0
140
0.0
141
0.0
142
1.0
143
1.0
 70
   688
 72
     0
 73
     0
 74
     5
  7

 75
    16
147
1.0
 76
     0
 77
     2
 78
   300
148
0.0
149
0.0
100
AcDbLayout
  1
Układ2
 70
     1
 71
     2
 10
0.0
 20
0.0
 11
12.0
 21
9.0
 12
0.0
 22
0.0
 32
0.0
 14
0.0
 24
0.0
 34
0.0
 15
0.0
 25
0.0
 35
0.0
146
0.0
 13
0.0
 23
0.0
 33
0.0
 16
1.0
 26
0.0
 36
0.0
 17
0.0
 27
1.0
 37
0.0
 76
     0
330
D6
  0
MATERIAL
  5
ED
102
{ACAD_XDICTIONARY
360
1F9
102
}
102
{ACAD_REACTORS
330
6A
102
}
330
6A
100
AcDbMaterial
  1
ByBlock
  0
MATERIAL
  5
EC
102
{ACAD_XDICTIONARY
360
1F7
102
}
102
{ACAD_REACTORS
330
6A
102
}
330
6A
100
AcDbMaterial
  1
ByLayer
  0
MATERIAL
  5
EE
102
{ACAD_XDICTIONARY
360
173
102
}
102
{ACAD_REACTORS
330
6A
102
}
330
6A
100
AcDbMaterial
  1
Global
 43
0.0007999999797903
 43
0.0
 43
0.0
 43
0.0
 43
0.0
 43
0.0007999999797903
 43
0.0
 43
0.0
 43
0.0
 43
0.0
 43
1.0
 43
0.0
 43
0.0
 43
0.0
 43
0.0
 43
1.0
 49
0.0007999999797903
 49
0.0
 49
0.0
 49
0.0
 49
0.0
 49
0.0007999999797903
 49
0.0
 49
0.0
 49
0.0
 49
0.0
 49
1.0
 49
0.0
 49
0.0
 49
0.0
 49
0.0
 49
1.0
142
0.0007999999797903
142
0.0
142
0.0
142
0.0
142
0.0
142
0.0007999999797903
142
0.0
142
0.0
142
0.0
142
0.0
142
1.0
142
0.0
142
0.0
142
0.0
142
0.0
142
1.0
144
0.0007999999797903
144
0.0
144
0.0
144
0.0
144
0.0
144
0.0007999999797903
144
0.0
144
0.0
144
0.0
144
0.0
144
1.0
144
0.0
144
0.0
144
0.0
144
0.0
144
1.0
1001
ACAD
1070
    -1
1070
     3
1070
     0
1000

1071
        0
1070
     0
  0
MLEADERSTYLE
  5
13B
102
{ACAD_REACTORS
330
12D
102
}
330
12D
100
AcDbMLeaderStyle
170
     2
171
     1
172
     0
 90
        2
 40
0.0
 41
0.0
173
     1
 91
-1056964608
340
14
 92
       -2
290
     1
 42
2.0
291
     1
 43
8.0
  3
Standard
 44
4.0
300

342
11
174
     1
178
     1
175
     1
176
     0
 93
-1056964608
 45
4.0
292
     0
297
     0
 46
4.0
 94
-1056964608
 47
1.0
 49
1.0
140
1.0
293
     1
141
0.0
294
     1
177
     0
142
1.0
295
     0
296
     1
143
3.75
1001
ACAD_MLEADERVER
1070
     2
  0
MLEADERSTYLE
  5
12E
102
{ACAD_REACTORS
330
12D
102
}
330
12D
100
AcDbMLeaderStyle
170
     2
171
     1
172
     0
 90
        2
 40
0.0
 41
0.0
173
     1
 91
-1056964608
340
14
 92
       -2
290
     1
 42
2.0
291
     1
 43
8.0
  3
Standard
 44
4.0
300

342
11
174
     1
178
     1
175
     1
176
     0
 93
-1056964608
 45
4.0
292
     0
297
     0
 46
4.0
 94
-1056964608
 47
1.0
 49
1.0
140
1.0
293
     1
141
0.0
294
     1
177
     0
142
1.0
295
     0
296
     0
143
3.75
1001
ACAD_MLEADERVER
1070
     2
  0
MLINESTYLE
  5
18
102
{ACAD_REACTORS
330
17
102
}
330
17
100
AcDbMlineStyle
  2
STANDARD
 70
     0
  3

 62
   256
 51
90.0
 52
90.0
 71
     2
 49
0.5
 62
   256
  6
BYLAYER
 49
-0.5
 62
   256
  6
BYLAYER
  0
ACDBPLACEHOLDER
  5
F
102
{ACAD_REACTORS
330
E
102
}
330
E
  0
SCALE
  5
10D
102
{ACAD_REACTORS
330
10C
102
}
330
10C
100
AcDbScale
 70
     0
300
1:1
140
1.0
141
1.0
290
     1
  0
SCALE
  5
1BE
102
{ACAD_REACTORS
330
10C
102
}
330
10C
100
AcDbScale
 70
     0
300
1:2
140
1.0
141
2.0
290
     0
  0
SCALE
  5
1BF
102
{ACAD_REACTORS
330
10C
102
}
330
10C
100
AcDbScale
 70
     0
300
1:4
140
1.0
141
4.0
290
     0
  0
SCALE
  5
1C0
102
{ACAD_REACTORS
330
10C
102
}
330
10C
100
AcDbScale
 70
     0
300
1:5
140
1.0
141
5.0
290
     0
  0
SCALE
  5
1C1
102
{ACAD_REACTORS
330
10C
102
}
330
10C
100
AcDbScale
 70
     0
300
1:8
140
1.0
141
8.0
290
     0
  0
SCALE
  5
1C2
102
{ACAD_REACTORS
330
10C
102
}
330
10C
100
AcDbScale
 70
     0
300
1:10
140
1.0
141
10.0
290
     0
  0
SCALE
  5
1C3
102
{ACAD_REACTORS
330
10C
102
}
330
10C
100
AcDbScale
 70
     0
300
1:16
140
1.0
141
16.0
290
     0
  0
SCALE
  5
1C4
102
{ACAD_REACTORS
330
10C
102
}
330
10C
100
AcDbScale
 70
     0
300
1:20
140
1.0
141
20.0
290
     0
  0
SCALE
  5
1C5
102
{ACAD_REACTORS
330
10C
102
}
330
10C
100
AcDbScale
 70
     0
300
1:30
140
1.0
141
30.0
290
     0
  0
SCALE
  5
1C6
102
{ACAD_REACTORS
330
10C
102
}
330
10C
100
AcDbScale
 70
     0
300
1:40
140
1.0
141
40.0
290
     0
  0
SCALE
  5
1C7
102
{ACAD_REACTORS
330
10C
102
}
330
10C
100
AcDbScale
 70
     0
300
1:50
140
1.0
141
50.0
290
     0
  0
SCALE
  5
1C8
102
{ACAD_REACTORS
330
10C
102
}
330
10C
100
AcDbScale
 70
     0
300
1:100
140
1.0
141
100.0
290
     0
  0
SCALE
  5
1C9
102
{ACAD_REACTORS
330
10C
102
}
330
10C
100
AcDbScale
 70
     0
300
2:1
140
2.0
141
1.0
290
     0
  0
SCALE
  5
1CA
102
{ACAD_REACTORS
330
10C
102
}
330
10C
100
AcDbScale
 70
     0
300
4:1
140
4.0
141
1.0
290
     0
  0
SCALE
  5
1CB
102
{ACAD_REACTORS
330
10C
102
}
330
10C
100
AcDbScale
 70
     0
300
8:1
140
8.0
141
1.0
290
     0
  0
SCALE
  5
1CC
102
{ACAD_REACTORS
330
10C
102
}
330
10C
100
AcDbScale
 70
     0
300
10:1
140
10.0
141
1.0
290
     0
  0
SCALE
  5
1CD
102
{ACAD_REACTORS
330
10C
102
}
330
10C
100
AcDbScale
 70
     0
300
100:1
140
100.0
141
1.0
290
     0
  0
ACDBSECTIONVIEWSTYLE
  5
21A
102
{ACAD_XDICTIONARY
360
751
102
}
102
{ACAD_REACTORS
330
219
102
}
330
219
100
AcDbModelDocViewStyle
 70
     0
  3
Metric50
290
     0
100
AcDbSectionViewStyle
 70
     0
 71
     0
 90
      102
 71
     1
340
11
 62
   256
 40
5.0
340
0
340
0
 62
   256
 40
5.0
300
I, O, Q, S, X, Z
 40
10.0
 90
        0
 40
2.5
 90
        0
 71
     2
340
16
 90
       25
 62
   256
340
16
 90
       50
 62
   256
 40
5.0
 40
2.5
 40
5.0
 71
     3
340
11
 62
   256
 40
5.0
 90
        0
 40
15.0
 90
        1
300
%<\AcVar ViewSectionStartId>%-%<\AcVar ViewSectionEndId>% (%<\AcVar ViewScale \f "%sn">%)
 71
     4
 62
   256
 62
   257
300
ANSI31
 40
1.0
 90
        0
290
     0
290
     0
 90
        6
 40
0.0
 40
1.570796326794896
 40
0.2617993877991494
 40
1.308996938995747
 40
-0.2617993877991494
 40
1.832595714594046
  0
TABLESTYLE
  5
7F
102
{ACAD_XDICTIONARY
360
162
102
}
102
{ACAD_REACTORS
330
7E
102
}
330
7E
100
AcDbTableStyle
  3
Standard
 70
     0
 71
     0
 40
1.5
 41
1.5
280
     0
281
     0
  7
Standard
140
4.5
170
     2
 62
     0
 63
     7
283
     0
274
    -2
284
     1
 64
     0
275
    -2
285
     1
 65
     0
276
    -2
286
     1
 66
     0
277
    -2
287
     1
 67
     0
278
    -2
288
     1
 68
     0
279
    -2
289
     1
 69
     0
  7
Standard
140
6.0
170
     5
 62
     0
 63
     7
283
     0
274
    -2
284
     1
 64
     0
275
    -2
285
     1
 65
     0
276
    -2
286
     1
 66
     0
277
    -2
287
     1
 67
     0
278
    -2
288
     1
 68
     0
279
    -2
289
     1
 69
     0
  7
Standard
140
4.5
170
     5
 62
     0
 63
     7
283
     0
274
    -2
284
     1
 64
     0
275
    -2
285
     1
 65
     0
276
    -2
286
     1
 66
     0
277
    -2
287
     1
 67
     0
278
    -2
288
     1
 68
     0
279
    -2
289
     1
 69
     0
  0
VISUALSTYLE
  5
F5
102
{ACAD_XDICTIONARY
360
72B
102
}
102
{ACAD_REACTORS
330
EF
102
}
330
EF
100
AcDbVisualStyle
  2
2dWireframe
 70
     4
 71
     0
 72
     2
 73
     1
 90
        0
 40
-0.6
 41
-30.0
 62
     5
 63
     7
421
 16777215
 74
     1
 91
        4
 64
     7
 65
   257
 75
     1
175
     1
 42
1.0
 92
        0
 66
   257
 43
1.0
 76
     1
 77
     6
 78
     2
 67
     7
 79
     5
170
     0
171
     0
290
     0
174
     0
 93
        1
 44
0.0
173
     0
291
     0
 45
0.0
1001
ACAD
1000
AcDbSavedByObjectVersion
1070
     0
  0
VISUALSTYLE
  5
F4
102
{ACAD_XDICTIONARY
360
729
102
}
102
{ACAD_REACTORS
330
EF
102
}
330
EF
100
AcDbVisualStyle
  2
Basic
 70
     7
 71
     1
 72
     0
 73
     1
 90
        0
 40
-0.6
 41
-30.0
 62
     5
 63
     7
421
 16777215
 74
     0
 91
        4
 64
     7
 65
   257
 75
     1
175
     1
 42
1.0
 92
        8
 66
     7
 43
1.0
 76
     1
 77
     6
 78
     2
 67
     7
 79
     5
170
     0
171
     0
290
     0
174
     0
 93
        1
 44
0.0
173
     0
291
     1
 45
0.0
1001
ACAD
1000
AcDbSavedByObjectVersion
1070
     0
  0
VISUALSTYLE
  5
FB
102
{ACAD_XDICTIONARY
360
737
102
}
102
{ACAD_REACTORS
330
EF
102
}
330
EF
100
AcDbVisualStyle
  2
Brighten
 70
    12
 71
     2
 72
     2
 73
     1
 90
        0
 40
-0.6
 41
-30.0
 62
     5
 63
     7
421
 16777215
 74
     1
 91
        4
 64
     7
 65
   257
 75
     1
175
     1
 42
1.0
 92
        8
 66
     7
 43
1.0
 76
     1
 77
     6
 78
     2
 67
     7
 79
     5
170
     0
171
     0
290
     0
174
     0
 93
        1
 44
50.0
173
     0
291
     1
 45
0.0
1001
ACAD
1000
AcDbSavedByObjectVersion
1070
     0
  0
VISUALSTYLE
  5
FF
102
{ACAD_XDICTIONARY
360
73F
102
}
102
{ACAD_REACTORS
330
EF
102
}
330
EF
100
AcDbVisualStyle
  2
ColorChange
 70
    16
 71
     2
 72
     2
 73
     3
 90
        0
 40
-0.6
 41
-30.0
 62
     5
 63
     8
421
  8421504
 74
     1
 91
        4
 64
     7
 65
   257
 75
     1
175
     1
 42
1.0
 92
        8
 66
     8
424
  8421504
 43
1.0
 76
     1
 77
     6
 78
     2
 67
     7
 79
     5
170
     0
171
     0
290
     0
174
     0
 93
        1
 44
0.0
173
     0
291
     1
 45
0.0
1001
ACAD
1000
AcDbSavedByObjectVersion
1070
     0
  0
VISUALSTYLE
  5
F8
102
{ACAD_XDICTIONARY
360
731
102
}
102
{ACAD_REACTORS
330
EF
102
}
330
EF
100
AcDbVisualStyle
  2
Conceptual
 70
     9
 71
     3
 72
     2
 73
     1
 90
        0
 40
-0.6
 41
-30.0
 62
     5
 63
     7
421
 16777215
 74
     2
 91
        2
 64
     7
 65
   257
 75
     1
175
     1
 42
40.0
 92
        8
 66
     7
 43
1.0
 76
     1
 77
     6
 78
     2
 67
     7
 79
     3
170
     0
171
     0
290
     0
174
     0
 93
        1
 44
0.0
173
     0
291
     0
 45
0.0
1001
ACAD
1000
AcDbSavedByObjectVersion
1070
     0
  0
VISUALSTYLE
  5
FA
102
{ACAD_XDICTIONARY
360
735
102
}
102
{ACAD_REACTORS
330
EF
102
}
330
EF
100
AcDbVisualStyle
  2
Dim
 70
    11
 71
     2
 72
     2
 73
     1
 90
        0
 40
-0.6
 41
-30.0
 62
     5
 63
     7
421
 16777215
 74
     1
 91
        4
 64
     7
 65
   257
 75
     1
175
     1
 42
1.0
 92
        8
 66
     7
 43
1.0
 76
     1
 77
     6
 78
     2
 67
     7
 79
     5
170
     0
171
     0
290
     0
174
     0
 93
        1
 44
-50.0
173
     0
291
     1
 45
0.0
1001
ACAD
1000
AcDbSavedByObjectVersion
1070
     0
  0
VISUALSTYLE
  5
1E6
102
{ACAD_XDICTIONARY
360
745
102
}
102
{ACAD_REACTORS
330
EF
102
}
330
EF
100
AcDbVisualStyle
  2
EdgeColorOff
 70
    22
 71
     2
 72
     2
 73
     0
 90
        0
 40
-0.6
 41
-30.0
 62
     5
 63
     7
421
 16777215
 74
     1
 91
        4
 64
     7
 65
   257
 75
     1
175
     1
 42
1.0
 92
        8
 66
     7
 43
1.0
 76
     1
 77
     6
 78
     2
 67
     7
 79
     5
170
     0
171
     0
290
     0
174
     0
 93
        1
 44
0.0
173
     0
291
     1
 45
0.0
1001
ACAD
1000
AcDbSavedByObjectVersion
1070
     0
  0
VISUALSTYLE
  5
FE
102
{ACAD_XDICTIONARY
360
73D
102
}
102
{ACAD_REACTORS
330
EF
102
}
330
EF
100
AcDbVisualStyle
  2
Facepattern
 70
    15
 71
     2
 72
     2
 73
     1
 90
        0
 40
-0.6
 41
-30.0
 62
     5
 63
     7
421
 16777215
 74
     1
 91
        4
 64
     7
 65
   257
 75
     1
175
     1
 42
1.0
 92
        8
 66
     7
 43
1.0
 76
     1
 77
     6
 78
     2
 67
     7
 79
     5
170
     0
171
     0
290
     0
174
     0
 93
        1
 44
0.0
173
     0
291
     1
 45
0.0
1001
ACAD
1000
AcDbSavedByObjectVersion
1070
     0
  0
VISUALSTYLE
  5
F0
102
{ACAD_XDICTIONARY
360
721
102
}
102
{ACAD_REACTORS
330
EF
102
}
330
EF
100
AcDbVisualStyle
  2
Flat
 70
     0
 71
     2
 72
     1
 73
     1
 90
        2
 40
-0.6
 41
30.0
 62
     5
 63
     7
421
 16777215
 74
     0
 91
        0
 64
     7
 65
   257
 75
     1
175
     1
 42
1.0
 92
        8
 66
     7
 43
1.0
 76
     1
 77
     6
 78
     2
 67
     7
 79
     5
170
     0
171
     0
290
     0
174
     0
 93
       13
 44
0.0
173
     0
291
     1
 45
0.0
1001
ACAD
1000
AcDbSavedByObjectVersion
1070
     0
  0
VISUALSTYLE
  5
F1
102
{ACAD_XDICTIONARY
360
723
102
}
102
{ACAD_REACTORS
330
EF
102
}
330
EF
100
AcDbVisualStyle
  2
FlatWithEdges
 70
     1
 71
     2
 72
     1
 73
     1
 90
        2
 40
-0.6
 41
30.0
 62
     5
 63
     7
421
 16777215
 74
     1
 91
        0
 64
     7
 65
   257
 75
     1
175
     1
 42
1.0
 92
        0
 66
   257
 43
1.0
 76
     1
 77
     6
 78
     2
 67
     7
 79
     5
170
     0
171
     0
290
     0
174
     0
 93
       13
 44
0.0
173
     0
291
     1
 45
0.0
1001
ACAD
1000
AcDbSavedByObjectVersion
1070
     0
  0
VISUALSTYLE
  5
F2
102
{ACAD_XDICTIONARY
360
725
102
}
102
{ACAD_REACTORS
330
EF
102
}
330
EF
100
AcDbVisualStyle
  2
Gouraud
 70
     2
 71
     2
 72
     2
 73
     1
 90
        2
 40
-0.6
 41
30.0
 62
     5
 63
     7
421
 16777215
 74
     0
 91
        0
 64
     7
 65
   257
 75
     1
175
     1
 42
1.0
 92
        0
 66
     7
 43
1.0
 76
     1
 77
     6
 78
     2
 67
     7
 79
     5
170
     0
171
     0
290
     0
174
     0
 93
       13
 44
0.0
173
     0
291
     1
 45
0.0
1001
ACAD
1000
AcDbSavedByObjectVersion
1070
     0
  0
VISUALSTYLE
  5
F3
102
{ACAD_XDICTIONARY
360
727
102
}
102
{ACAD_REACTORS
330
EF
102
}
330
EF
100
AcDbVisualStyle
  2
GouraudWithEdges
 70
     3
 71
     2
 72
     2
 73
     1
 90
        2
 40
-0.6
 41
30.0
 62
     5
 63
     7
421
 16777215
 74
     1
 91
        0
 64
     7
 65
   257
 75
     1
175
     1
 42
1.0
 92
        0
 66
   257
 43
1.0
 76
     1
 77
     6
 78
     2
 67
     7
 79
     5
170
     0
171
     0
290
     0
174
     0
 93
       13
 44
0.0
173
     0
291
     1
 45
0.0
1001
ACAD
1000
AcDbSavedByObjectVersion
1070
     0
  0
VISUALSTYLE
  5
F7
102
{ACAD_XDICTIONARY
360
72F
102
}
102
{ACAD_REACTORS
330
EF
102
}
330
EF
100
AcDbVisualStyle
  2
Hidden
 70
     6
 71
     1
 72
     2
 73
     2
 90
        0
 40
-0.6
 41
-30.0
 62
     5
 63
     7
421
 16777215
 74
     2
 91
        2
 64
     7
 65
   257
 75
     2
175
     1
 42
40.0
 92
        0
 66
   257
 43
1.0
 76
     1
 77
     6
 78
     2
 67
     7
 79
     3
170
     0
171
     0
290
     0
174
     0
 93
        1
 44
0.0
173
     0
291
     0
 45
0.0
1001
ACAD
1000
AcDbSavedByObjectVersion
1070
     0
  0
VISUALSTYLE
  5
1E4
102
{ACAD_XDICTIONARY
360
741
102
}
102
{ACAD_REACTORS
330
EF
102
}
330
EF
100
AcDbVisualStyle
  2
JitterOff
 70
    20
 71
     2
 72
     2
 73
     0
 90
        0
 40
-0.6
 41
-30.0
 62
     5
 63
     7
421
 16777215
 74
     1
 91
        4
 64
     7
 65
   257
 75
     1
175
     1
 42
1.0
 92
       10
 66
     7
 43
1.0
 76
     1
 77
     6
 78
     2
 67
     7
 79
     5
170
     0
171
     0
290
     0
174
     0
 93
        1
 44
0.0
173
     0
291
     1
 45
0.0
1001
ACAD
1000
AcDbSavedByObjectVersion
1070
     0
  0
VISUALSTYLE
  5
FD
102
{ACAD_XDICTIONARY
360
73B
102
}
102
{ACAD_REACTORS
330
EF
102
}
330
EF
100
AcDbVisualStyle
  2
Linepattern
 70
    14
 71
     2
 72
     2
 73
     1
 90
        0
 40
-0.6
 41
-30.0
 62
     5
 63
     7
421
 16777215
 74
     1
 91
        4
 64
     7
 65
   257
 75
     7
175
     7
 42
1.0
 92
        8
 66
     7
 43
1.0
 76
     1
 77
     6
 78
     2
 67
     7
 79
     5
170
     0
171
     0
290
     0
174
     0
 93
        1
 44
0.0
173
     0
291
     1
 45
0.0
1001
ACAD
1000
AcDbSavedByObjectVersion
1070
     0
  0
VISUALSTYLE
  5
1E5
102
{ACAD_XDICTIONARY
360
743
102
}
102
{ACAD_REACTORS
330
EF
102
}
330
EF
100
AcDbVisualStyle
  2
OverhangOff
 70
    21
 71
     2
 72
     2
 73
     0
 90
        0
 40
-0.6
 41
-30.0
 62
     5
 63
     7
421
 16777215
 74
     1
 91
        4
 64
     7
 65
   257
 75
     1
175
     1
 42
1.0
 92
        9
 66
     7
 43
1.0
 76
     1
 77
     6
 78
     2
 67
     7
 79
     5
170
     0
171
     0
290
     0
174
     0
 93
        1
 44
0.0
173
     0
291
     1
 45
0.0
1001
ACAD
1000
AcDbSavedByObjectVersion
1070
     0
  0
VISUALSTYLE
  5
F9
102
{ACAD_XDICTIONARY
360
733
102
}
102
{ACAD_REACTORS
330
EF
102
}
330
EF
100
AcDbVisualStyle
  2
Realistic
 70
     8
 71
     2
 72
     3
 73
     0
 90
        2
 40
-0.6
 41
30.0
 62
     5
 63
     7
421
 16777215
 74
     0
 91
        0
 64
     7
 65
   257
 75
     1
175
     1
 42
1.0
 92
        8
 66
   257
 43
1.0
 76
     1
 77
     6
 78
     2
 67
     7
 79
     3
170
     0
171
     0
290
     0
174
     0
 93
       13
 44
0.0
173
     0
291
     0
 45
0.0
1001
ACAD
1000
AcDbSavedByObjectVersion
1070
     0
  0
VISUALSTYLE
  5
1F3
102
{ACAD_XDICTIONARY
360
74F
102
}
102
{ACAD_REACTORS
330
EF
102
}
330
EF
100
AcDbVisualStyle
  2
Shaded
 70
    27
 71
     2
 72
     2
 73
     1
 90
        2
 40
-0.6
 41
30.0
 62
     5
 63
     7
421
 16777215
 74
     0
 91
        4
 64
     7
 65
   257
 75
     1
175
     1
 42
1.0
 92
        8
 66
   257
 43
1.0
 76
     1
 77
     6
 78
     2
 67
     8
425
  7895160
 79
     3
170
     0
171
     0
290
     0
174
     0
 93
        5
 44
0.0
173
     0
291
     0
 45
0.0
1001
ACAD
1000
AcDbSavedByObjectVersion
1070
     0
  0
VISUALSTYLE
  5
1F2
102
{ACAD_XDICTIONARY
360
74D
102
}
102
{ACAD_REACTORS
330
EF
102
}
330
EF
100
AcDbVisualStyle
  2
Shaded with edges
 70
    26
 71
     2
 72
     2
 73
     1
 90
        2
 40
-0.6
 41
30.0
 62
     5
 63
     7
421
 16777215
 74
     1
 91
        2
 64
     7
 65
   257
 75
     2
175
     1
 42
1.0
 92
        8
 66
   257
 43
1.0
 76
     1
 77
     6
 78
     2
 67
     7
 79
     3
170
     0
171
     0
290
     0
174
     0
 93
        5
 44
0.0
173
     0
291
     0
 45
0.0
1001
ACAD
1000
AcDbSavedByObjectVersion
1070
     0
  0
VISUALSTYLE
  5
1EF
102
{ACAD_XDICTIONARY
360
747
102
}
102
{ACAD_REACTORS
330
EF
102
}
330
EF
100
AcDbVisualStyle
  2
Shades of Gray
 70
    23
 71
     2
 72
     2
 73
     3
 90
        0
 40
-0.6
 41
-30.0
 62
     5
 63
     7
421
 16777215
 74
     2
 91
        2
 64
     7
 65
     7
 75
     1
175
     1
 42
40.0
 92
        8
 66
     7
 43
1.0
 76
     1
 77
     6
 78
     2
 67
     7
 79
     3
170
     0
171
     0
290
     0
174
     0
 93
        1
 44
0.0
173
     0
291
     0
 45
0.0
1001
ACAD
1000
AcDbSavedByObjectVersion
1070
     0
  0
VISUALSTYLE
  5
1F0
102
{ACAD_XDICTIONARY
360
749
102
}
102
{ACAD_REACTORS
330
EF
102
}
330
EF
100
AcDbVisualStyle
  2
Sketchy
 70
    24
 71
     1
 72
     2
 73
     2
 90
        0
 40
-0.6
 41
-30.0
 62
     5
 63
     7
421
 16777215
 74
     2
 91
        2
 64
     7
 65
     7
 75
     1
175
     1
 42
40.0
 92
       11
 66
     7
 43
1.0
 76
     1
 77
     6
 78
     2
 67
     7
 79
     6
170
     0
171
     0
290
     0
174
     0
 93
        1
 44
0.0
173
     0
291
     0
 45
0.0
1001
ACAD
1000
AcDbSavedByObjectVersion
1070
     0
  0
VISUALSTYLE
  5
FC
102
{ACAD_XDICTIONARY
360
739
102
}
102
{ACAD_REACTORS
330
EF
102
}
330
EF
100
AcDbVisualStyle
  2
Thicken
 70
    13
 71
     2
 72
     2
 73
     1
 90
        0
 40
-0.6
 41
-30.0
 62
     5
 63
     7
421
 16777215
 74
     1
 91
        4
 64
     7
 65
   257
 75
     1
175
     1
 42
1.0
 92
       12
 66
     7
 43
1.0
 76
     1
 77
     6
 78
     2
 67
     7
 79
     5
170
     0
171
     0
290
     0
174
     0
 93
        1
 44
0.0
173
     0
291
     1
 45
0.0
1001
ACAD
1000
AcDbSavedByObjectVersion
1070
     0
  0
VISUALSTYLE
  5
F6
102
{ACAD_XDICTIONARY
360
72D
102
}
102
{ACAD_REACTORS
330
EF
102
}
330
EF
100
AcDbVisualStyle
  2
Wireframe
 70
     5
 71
     0
 72
     2
 73
     0
 90
        0
 40
-0.6
 41
-30.0
 62
     5
 63
     7
421
 16777215
 74
     1
 91
        4
 64
     7
 65
   257
 75
     1
175
     1
 42
1.0
 92
        0
 66
   257
 43
1.0
 76
     1
 77
     6
 78
     2
 67
     7
 79
     3
170
     0
171
     0
290
     0
174
     0
 93
        1
 44
0.0
173
     0
291
     0
 45
0.0
1001
ACAD
1000
AcDbSavedByObjectVersion
1070
     0
  0
VISUALSTYLE
  5
1F1
102
{ACAD_XDICTIONARY
360
74B
102
}
102
{ACAD_REACTORS
330
EF
102
}
330
EF
100
AcDbVisualStyle
  2
X-Ray
 70
    25
 71
     2
 72
     2
 73
     1
 90
        1
 40
0.5
 41
-30.0
 62
     5
 63
     7
421
 16777215
 74
     1
 91
        0
 64
     7
 65
   257
 75
     1
175
     1
 42
1.0
 92
        8
 66
     7
 43
1.0
 76
     1
 77
     6
 78
     2
 67
     7
 79
     3
170
     0
171
     0
290
     0
174
     0
 93
       13
 44
0.0
173
     0
291
     0
 45
0.0
1001
ACAD
1000
AcDbSavedByObjectVersion
1070
     0
  0
DICTIONARYVAR
  5
146
102
{ACAD_REACTORS
330
5E
102
}
330
5E
100
DictionaryVariables
280
     0
  1
1:1
  0
DICTIONARYVAR
  5
259
102
{ACAD_REACTORS
330
5E
102
}
330
5E
100
DictionaryVariables
280
     0
  1
3.500000
  0
DICTIONARYVAR
  5
25A
102
{ACAD_REACTORS
330
5E
102
}
330
5E
100
DictionaryVariables
280
     0
  1
acadiso.lin
  0
DICTIONARYVAR
  5
145
102
{ACAD_REACTORS
330
5E
102
}
330
5E
100
DictionaryVariables
280
     0
  1
STANDARD
  0
DICTIONARYVAR
  5
84
102
{ACAD_REACTORS
330
5E
102
}
330
5E
100
DictionaryVariables
280
     0
  1
STANDARD
  0
DICTIONARYVAR
  5
227
102
{ACAD_REACTORS
330
5E
102
}
330
5E
100
DictionaryVariables
280
     0
  1
Metric50
  0
DICTIONARYVAR
  5
228
102
{ACAD_REACTORS
330
5E
102
}
330
5E
100
DictionaryVariables
280
     0
  1
Metric50
  0
DICTIONARYVAR
  5
5F
102
{ACAD_REACTORS
330
5E
102
}
330
5E
100
DictionaryVariables
280
     0
  1
2
  0
DICTIONARYVAR
  5
63
102
{ACAD_REACTORS
330
5E
102
}
330
5E
100
DictionaryVariables
280
     0
  1
1
  0
DICTIONARYVAR
  5
1AE
102
{ACAD_REACTORS
330
5E
102
}
330
5E
100
DictionaryVariables
280
     0
  1
0
  0
DICTIONARYVAR
  5
1AF
102
{ACAD_REACTORS
330
5E
102
}
330
5E
100
DictionaryVariables
280
     0
  1
0
  0
DICTIONARYVAR
  5
70F
102
{ACAD_REACTORS
330
5E
102
}
330
5E
100
DictionaryVariables
280
     0
  1
2
  0
DICTIONARYVAR
  5
70E
102
{ACAD_REACTORS
330
5E
102
}
330
5E
100
DictionaryVariables
280
     0
  1
1
  0
DICTIONARYVAR
  5
711
102
{ACAD_REACTORS
330
5E
102
}
330
5E
100
DictionaryVariables
280
     0
  1
80.000000
  0
DICTIONARYVAR
  5
710
102
{ACAD_REACTORS
330
5E
102
}
330
5E
100
DictionaryVariables
280
     0
  1
5.000000
  0
DICTIONARYVAR
  5
712
102
{ACAD_REACTORS
330
5E
102
}
330
5E
100
DictionaryVariables
280
     0
  1
2
  0
DICTIONARY
  5
71C
102
{ACAD_REACTORS
330
71A
102
}
330
71A
100
AcDbDictionary
281
     1
  0
DICTIONARY
  5
71B
102
{ACAD_REACTORS
330
71A
102
}
330
71A
100
AcDbDictionary
281
     1
  3
1350097025872
350
715
  3
1350097025888
350
716
  3
1350097025904
350
717
  3
1350097025920
350
718
  3
1350097025936
350
719
  0
DICTIONARY
  5
753
330
21C
100
AcDbDictionary
280
     1
281
     1
  3
ACAD_XREC_ROUNDTRIP
360
754
  0
DICTIONARY
  5
205
330
22
100
AcDbDictionary
280
     1
281
     1
  0
DICTIONARY
  5
1F9
330
ED
100
AcDbDictionary
280
     1
281
     1
  3
ACAD_XREC_ROUNDTRIP
360
71F
  3
FBXASSET
360
1FA
  0
DICTIONARY
  5
1F7
330
EC
100
AcDbDictionary
280
     1
281
     1
  3
ACAD_XREC_ROUNDTRIP
360
71E
  3
FBXASSET
360
1F8
  0
DICTIONARY
  5
173
330
EE
100
AcDbDictionary
280
     1
281
     1
  3
ACAD_XREC_ROUNDTRIP
360
720
  3
BUMPTILE
360
175
  3
DIFFUSETILE
360
174
  3
FBXASSET
360
1FB
  3
OPACITYTILE
360
176
  3
REFLECTIONTILE
360
177
  0
DICTIONARY
  5
751
330
21A
100
AcDbDictionary
280
     1
281
     1
  3
ACAD_XREC_ROUNDTRIP
360
752
  0
DICTIONARY
  5
162
330
7F
100
AcDbDictionary
280
     1
281
     1
  3
ACAD_ROUNDTRIP_2008_TABLESTYLE_CELLSTYLEMAP
360
713
  3
ACAD_XREC_ROUNDTRIP
360
71D
  0
DICTIONARY
  5
72B
330
F5
100
AcDbDictionary
280
     1
281
     1
  3
ACAD_XREC_ROUNDTRIP
360
72C
  0
DICTIONARY
  5
729
330
F4
100
AcDbDictionary
280
     1
281
     1
  3
ACAD_XREC_ROUNDTRIP
360
72A
  0
DICTIONARY
  5
737
330
FB
100
AcDbDictionary
280
     1
281
     1
  3
ACAD_XREC_ROUNDTRIP
360
738
  0
DICTIONARY
  5
73F
330
FF
100
AcDbDictionary
280
     1
281
     1
  3
ACAD_XREC_ROUNDTRIP
360
740
  0
DICTIONARY
  5
731
330
F8
100
AcDbDictionary
280
     1
281
     1
  3
ACAD_XREC_ROUNDTRIP
360
732
  0
DICTIONARY
  5
735
330
FA
100
AcDbDictionary
280
     1
281
     1
  3
ACAD_XREC_ROUNDTRIP
360
736
  0
DICTIONARY
  5
745
330
1E6
100
AcDbDictionary
280
     1
281
     1
  3
ACAD_XREC_ROUNDTRIP
360
746
  0
DICTIONARY
  5
73D
330
FE
100
AcDbDictionary
280
     1
281
     1
  3
ACAD_XREC_ROUNDTRIP
360
73E
  0
DICTIONARY
  5
721
330
F0
100
AcDbDictionary
280
     1
281
     1
  3
ACAD_XREC_ROUNDTRIP
360
722
  0
DICTIONARY
  5
723
330
F1
100
AcDbDictionary
280
     1
281
     1
  3
ACAD_XREC_ROUNDTRIP
360
724
  0
DICTIONARY
  5
725
330
F2
100
AcDbDictionary
280
     1
281
     1
  3
ACAD_XREC_ROUNDTRIP
360
726
  0
DICTIONARY
  5
727
330
F3
100
AcDbDictionary
280
     1
281
     1
  3
ACAD_XREC_ROUNDTRIP
360
728
  0
DICTIONARY
  5
72F
330
F7
100
AcDbDictionary
280
     1
281
     1
  3
ACAD_XREC_ROUNDTRIP
360
730
  0
DICTIONARY
  5
741
330
1E4
100
AcDbDictionary
280
     1
281
     1
  3
ACAD_XREC_ROUNDTRIP
360
742
  0
DICTIONARY
  5
73B
330
FD
100
AcDbDictionary
280
     1
281
     1
  3
ACAD_XREC_ROUNDTRIP
360
73C
  0
DICTIONARY
  5
743
330
1E5
100
AcDbDictionary
280
     1
281
     1
  3
ACAD_XREC_ROUNDTRIP
360
744
  0
DICTIONARY
  5
733
330
F9
100
AcDbDictionary
280
     1
281
     1
  3
ACAD_XREC_ROUNDTRIP
360
734
  0
DICTIONARY
  5
74F
330
1F3
100
AcDbDictionary
280
     1
281
     1
  3
ACAD_XREC_ROUNDTRIP
360
750
  0
DICTIONARY
  5
74D
330
1F2
100
AcDbDictionary
280
     1
281
     1
  3
ACAD_XREC_ROUNDTRIP
360
74E
  0
DICTIONARY
  5
747
330
1EF
100
AcDbDictionary
280
     1
281
     1
  3
ACAD_XREC_ROUNDTRIP
360
748
  0
DICTIONARY
  5
749
330
1F0
100
AcDbDictionary
280
     1
281
     1
  3
ACAD_XREC_ROUNDTRIP
360
74A
  0
DICTIONARY
  5
739
330
FC
100
AcDbDictionary
280
     1
281
     1
  3
ACAD_XREC_ROUNDTRIP
360
73A
  0
DICTIONARY
  5
72D
330
F6
100
AcDbDictionary
280
     1
281
     1
  3
ACAD_XREC_ROUNDTRIP
360
72E
  0
DICTIONARY
  5
74B
330
1F1
100
AcDbDictionary
280
     1
281
     1
  3
ACAD_XREC_ROUNDTRIP
360
74C
  0
XRECORD
  5
715
102
{ACAD_REACTORS
330
71B
102
}
330
71B
100
AcDbXrecord
280
     1
  1
AcDb_Thumbnail_Schema
102
{ATTRRECORD
341
716
  2
AcDbDs::TreatedAsObjectData
280
     1
291
     1
102
ATTRRECORD}
102
{ATTRRECORD
341
717
  2
AcDbDs::Legacy
280
     1
291
     1
102
ATTRRECORD}
  2
AcDbDs::ID
280
    10
 91
        8
102
{ATTRRECORD
341
718
  2
AcDs:Indexable
280
     1
291
     1
102
ATTRRECORD}
102
{ATTRRECORD
341
719
  2
AcDbDs::HandleAttribute
280
     7
282
     1
102
ATTRRECORD}
  2
Thumbnail_Data
280
    15
 91
        0
  0
XRECORD
  5
716
102
{ACAD_REACTORS
330
71B
102
}
330
71B
100
AcDbXrecord
280
     1
  1
AcDbDs::TreatedAsObjectDataSchema
  2
AcDbDs::TreatedAsObjectData
280
     1
 91
        0
  0
XRECORD
  5
717
102
{ACAD_REACTORS
330
71B
102
}
330
71B
100
AcDbXrecord
280
     1
  1
AcDbDs::LegacySchema
  2
AcDbDs::Legacy
280
     1
 91
        0
  0
XRECORD
  5
718
102
{ACAD_REACTORS
330
71B
102
}
330
71B
100
AcDbXrecord
280
     1
  1
AcDbDs::IndexedPropertySchema
  2
AcDs:Indexable
280
     1
 91
        0
  0
XRECORD
  5
719
102
{ACAD_REACTORS
330
71B
102
}
330
71B
100
AcDbXrecord
280
     1
  1
AcDbDs::HandleAttributeSchema
  2
AcDbDs::HandleAttribute
280
     7
 91
        1
284
     1
  0
XRECORD
  5
754
102
{ACAD_REACTORS
330
753
102
}
330
753
100
AcDbXrecord
280
     1
102
DISPLAYNAME
  1
Metric50
102
FLAGS
 90
        0
  0
XRECORD
  5
71F
102
{ACAD_REACTORS
330
1F9
102
}
330
1F9
100
AcDbXrecord
280
     1
102
MATERIAL
148
0.0
149
0.0
149
0.0
 93
        0
 94
       63
282
     0
 72
     1
 77
     1
171
     1
175
     1
179
     1
273
     0
  0
XRECORD
  5
1FA
102
{ACAD_REACTORS
330
1F9
102
}
330
1F9
100
AcDbXrecord
280
     1
 70
     1
 90
429727718
  1
D62C5603-E3A1-4AEA-B7FB-FE5D8D0755AF
310
504B03040A0000080000CC70623B3DEE336E79000000790000001B0000006175746F6465736B2D64657369676E2D7061636B6167652E786D6C3C3F786D6C2076657273696F6E3D22312E302220656E636F64696E673D227574662D3822203F3E3C666F726D6174733E3C666F726D61743E687474703A2F2F736368656D612E
310
6175746F6465736B2E636F6D2F64657369676E2D7061636B6167652F323030393C2F666F726D61743E3C2F666F726D6174733E504B0304140006080800CC70623BD486FD9CA0000000F4000000130000005B436F6E74656E745F54797065735D2E786D6C7D8EC10E82300C865F65E91D8A1E8C310C0EEA1BF002731658846E
310
D98AC1B77784ABF1D8FE5FBFBF75BBCE937A534CCEB38643598122B6FEE978D0B0485F9C41B54DDD7D022595594E1A469170414C76A4D9A4D207E29CF43ECE46F218070CC6BECC4078ACAA135ACF422C856C0E68EA1BF5669944DDD7BCDE7B1F8E415D77AECB980613C2E4AC91FC167A2B244592486606FC29C8FD7F045B9A
310
EF7053A7E60B504B0304140006080800CC70623B853B8169EB0000007C01000008000000636F72652E786D6C8D90416EC3201045AF62CDB6C206821CC7C244919D9CA01740401C94182C03558F5F9C3852BBEB6A467FFE9B197D7EFC9E1EC5975982F5AE035262288C535E5B377690E21535501C055FBC8FBF6C503839990E
310
5619041F179FE64D52DE45E362569DD7661365082642A11EB9E920A89B99642953CC8E702F67A9EE7234257977194EC9EAE275C4EABCCF5EAD5940D4AC6F0E35A568B8F43562CD7046CD199FD07E60174276A7BE677B5EADB0E0D14EEFFB6A31321A0D82627C4084204C3F096B71DD52F6819B16635EADF63F509AF53FA164
310
5DDCD1EDDD17164090FCC8732078B56691CB33A85CD7DCC40F504B0304140006080800CC70623B55019EA25F0000007C00000007000000636E782E786D6C4DCB3B0E80201045D1AD90E915ED2CF8AC45050C11660C8261F98AB1B07AC9C97D42D718D865D3E909258CFD00CCE24AC6E326A164D74DC0B4128928FF32603847
310
2BA13128B1252AC747C6BAB984FC68F0B87FE8960A5C09FE86CFB69FBA01504B0304140006080800CC70623BDBABAAF470010000D40300000C0000006662782F636F72652E786D6CC553D16E823014FD95A6AF4B694182CC941A83FA05FB810A9511A125A5257EFE2E82712ECEB8A7F100CD39F7F69E734AF9FADC366850B6
310
AF8DCE7018308C942E4C59EB2AC3DE1D498AD15A706B8CFB56869196ADCAF00863C12B6B7C374385D14E6907A836A59A41D9F7CA615434B0C8705F7CAA5606D23BA8E84F41278B93AC54100640439DE0BDB320004D43C63716C7C399D30917DCFBBA9CD9BA8469F5B156168B24CED3F7248AC8769F27244EB73B92EED8862C
310
B7F13E0C179B3C8F979C8ECD82BBBABDAA2BAC924E9558448CBD9330242CFA08E3154B5651FCC6D215639C8EE5774DBE2B5F6CF2B5768B68963BB5F5588420E442FC700B1139D4CB01F450C1E918227C2E09DF070D8140C84E1E9AAB8F1340832A9CB13130A5F1376A908D57309505ECF2A0DF179C4E9D30F5B239B87E3823
310
7A79C6F31DE1A8A5AEC08474B03C7837EAE4938639B44E5932B833D2C6B6B279CDC613877FA26EE21F4A2A4C63EC7F29A2F301D1F9F7A0E37D145F504B0304140006080800CC70623B9C113CC27E0000009D0000000B0000006662782F636E782E786D6C4DCCDF0A83201C86E15B91DFB94BFB330DD428C8FB886521330DA7
310
6397BF1A1DECE883878F57749FCDA1B7892F1BBC047A23808C7F84D9FA55424E0BE6803A256208E9EF06C84F9B91703228B1C690F78B66B34CD9A5439DF5CF0BFBF65E35BCA1B8D6A5C6F540381E886698B5741C695F9503EBA150A2F8958E3DC3EA0B504B0304140006080800CC70623B7DF2F77C2A010000120200003100
310
00006662782F41393633353835312D344632462D344230382D423046372D3739314545314133324237412F636F72652E786D6C8D51DB8EC22014FC15C2939B0D2DB4B45643319AE817EC0F6041255A68B86CFCFC856D4D76DF7CE190393373060EDB3DC707F856CE6B6B7A480A0C81328395DA5C7B18C3057510EC3873D686
310
3F34088C18550F330C39BB3A1BA7051AAC09CA84841A2BD5020AEF55806078A44B0FFD7053A328440C89E1EFC52486BBB8AA8214A99D789CF9E05200300FC927E4FB4D5B375D43103D5527440FB843077C5AA3F5861C8F645F5787F59E95B390B318B55CE45AA638FAA2957BD7248B390B7A7CC51F9C124149C82B8C378810
310
84AB2F42B7B8DD56F413775B8C5999E9FF4471926F8AA236A1AE96B8B3CC434E5839373893369E1FAF30EA395917409EB7F26AF8801C171837A4A6AC9C89E9F9C9B1A58BA30FD6A5EF5DDDCF894B9AD9B6A59C957943A9FCAE2FD5BC4DFE03504B0304140006080800CC70623BAD7543B64E01000033030000300000006662
310
782F41393633353835312D344632462D344230382D423046372D3739314545314133324237412F636E782E786D6CD593CD6EC32010845F0571AD6CE3D48AD20813A9873E410FBD12D82434182C7EAAE6EDBB2424CD25871E7B41D6EC30B3FA84F9E67BB2E40B4234DE8DB46F1925E094D7C6ED479AD3AE5951B2113C789FEE
310
6C943839C1488B4C05DF079FE72A69D8C96C13AAD6B8631503449F83828872B949AC57D26200B826A308D316B4064D6E46FCDA41C05550DC9E483A00797BFD207EFB092A45DE9514C1BBD22178396BD39D891265658C238DEA00936C654E5E433CB65A26D9F6EDB5EBC14EBF49A45CB856E66048291F6939A9A81BB5C89177
310
38143CA680F4AA299D66A042CEB3354A2684DC9D8D178FE0D9B8B41CAAD720F880EE7EF93C0C18769E099ECC04D5A102C8049A8A05632F4DDF376CF1DE0F6BB65C2F8627B65A33C6BB62177CEBBDAD973006829F89F22E814B54F4BC2BE347F8AA8F681390B50FA73F804400B5F542E796F19FF974E7F78DB802FE05E20750
310
4B0304140006080800CC70623BE75B7789680500003C100000340000006662782F41393633353835312D344632462D344230382D423046372D3739314545314133324237412F6F626A656374732E786D6CAD575B8F9B3818FD2B887D06C22499CB8AA1CA655245D5B455A356FB305264C061D8018C6C3393D95FBFC7600890
310
A4CD5EF210B0B1BFEBF98E3F7B1FF6596ABC522E1296DF9BAE3D320D9A872C4AF2F8DE2CE5CEBA358D0FBEC719939D65A691938CDE9B6ADAF4BD98B3B2D05311DD91329583D9D5FC0F438434A7A611A644887B5384CF34233629258BA878B12322891DEFF6B66BD70BFB62634E8AE781D082709A4B588AF91C528CDA28B73F
310
1C998EEF39EABBEFA97FBD6A7C7E9553F9D3D79FE442923C3C523610337627CB87ABE99D359D4CC6D6E4FACAB5E6ABF9D2726FC6A3C5F56271377BB88362213924694B38DD99FE47C48627A1E7D49F5A8BB5E1A74C0A599ED3B0F21F1E56366B89112D681E218F0915D0D6F17AD41FBA2A369DCF6335D62ABBD39779D5DDD1
310
11D4D8DE3CBB96B2E04FB8202E41051754A1AA8E8F76B4C6DFE810B580B1547F4B84911149794252234D024EF8BBE963A95AE27B3D310A9D5C215C7960FAEE415ED75694C6AFB17BCACA5D99A60A9AA65F217B0BFC53292ACB92BF283FAD0D3621576592CB5BED907C2FA8E9DF794E35E97BEA31BED21FEB401ABB94C44839
310
DCACBF0E1C5DA8DA5B2F4DFFD32AD86F543D9E565E7056502E157C00AD2671CD534549AB752FCA9CDA00677A313F04E51B22FF19E57B300579E3C97EB29F682D92935CEC18CF901B7B54FD8C51F362B56FC72FE0B3C1EAE335EDCCBF5AEC39ADB17DC238973F804BA5E6F6BFE7AF1FB32E523BE9F3BD571418E3631DCA4D48
310
5250CF639223210A9446CA30052EDF057BD35F8329C1ECD84552BF0DC8D18BE7BCE23BFE6BD960AB4A7DE79923A103BEBD80F911CBAA2C60DB19B01CF164A5583B772EE6D3FFA56666CBCDA74DC97724A48F9A58967497E489C4D979006FD7A05E227A1EBDD0F737C623387A9C844D3709995625106D157315F8B8392CD4E0
310
A0B9A720C4BE9829CEF37EA1E13111214D53925356365ADA634861B52519DD27A00AEB808EAF0628E6F435519D446F45CF2C9CF5214F0A15B2F6D06B79DA3EE3CBF7F56780D2F4E7EF73A0F5E5B02A38D07DC852C6B7C1FBB6664213E0C39E3EBA7FF4E1AD23EA2829407C85E586727488B751B2DB9502BC7B228A3FD68B6E
310
A65A22397E690AA8D158D7E404EC8CDA235CC3B7D1898680131CEC2CDF2638C65196279577750F15884AEE19F94199155B92B13297978469D4F8D358DF0AEF7631E28DC8F0D9F437D5D39A83B2231A1D52D543813A824EF8D44BCFF2FA6A31BD1E8DAD87F1CCB526B3879935BF59CDADD5C37479BB1CDD4CA7B3556B516589
310
EF352754B706114D9C885EC9131DE6EFEB43D99AFE2391C2F958179413D7CFEF6B1B6DB1E7600F00DE6E5C67454A339A4BA2E0FBA85ED26F045D454F463DBFCE484C2F90F2E5E3666003662ED8F755951A7D1BECD5B30B550B2785C8E7320B7292A4838DDA71BBC863ED7613CAF659337A3354231D4FF4A182A54904C2898C
310
98B28C4AD0CE056CCF332A80986E571EE9DBC305BB5FEB7E509220A58D25CF042D712A806AC0AD0C657FDEF80D2D9CEAA2EE4D1C76F60BFE74219A06527D6F82DF6412526107381E55E353090704D085B52408A8913C4ED159D79BDA71BB4BC506F4831350EB6F975CD22D69BF7AC49B91A2C0A9DDA3D5CA36AD20FC478E37
310
E61844E2352865EBCB61A275A65283CAAA9DD27703B4102F5AF51EF5F573B75CBB5AD38BC845F7A49F82A0966A49C2E3EA5EA0ECD326CD965F1DB402C6FA8B51A4658C5C5E2EC9E214602E55810345408596591009A82E7E7FFACA19EEA299B14A0081A705CB3296EBC14CDF658DCD336EA6D1136881AAEB87B81AB9EE53D5
310
F5EB8BC8362082DA24122F98680A4E7930C01A0079749CEA14382A0783E5EBA5A10F8C098456A03D6A4AEB6BB881E2513747552A5DB22C7EDAF83BD5528081A365F7FF06504B0304140006080000CC70623B000000000000000000000000350000006662782F41393633353835312D344632462D344230382D423046372D37
310
39314545314133324237412F76657274696365732E62696E504B0304140006080800CC70623BF270F1330600000004000000360000006662782F41393633353835312D344632462D344230382D423046372D3739314545314133324237412F747269616E676C65732E62696E636660600000504B0304140006080000CC7062
310
3B000000000000000000000000370000006662782F41393633353835312D344632462D344230382D423046372D3739314545314133324237412F617474726962757465732E62696E504B0304140006080800CC70623B08DA0BD19000000041010000360000006662782F41393633353835312D344632462D344230382D4230
310
46372D3739314545314133324237412F6469726563746F72792E786D6C858F410AC3201045AF22B36F53E9A60B35CBEEBAE80D244E44489C6234F4F835464A48035D0DF398FF9F8AF63D0E6CC63039F212F8F9020C7D47C6792B21C5FE7403D62A1188E2E60C98D7234A5830286103A55745067B9D86B8A3CF9C7F90C11DE6
310
07FB144396D7B6A82D282E9A152AD114D5EF2CB866EEE831B8EEA07A7BB5A8D7D61A2BAAEB7FD5F70921FF497D00504B0304140006080800CC70623BEDD1DC58FD000000A00100003B0000006662782F41393633353835312D344632462D344230382D423046372D3739314545314133324237412F7265736F75726365732F
310
636F72652E786D6C8D504B6E833010BD0A9A6D65B00922041947112427E8052C33A156828DFCA97AFC9A40A576D7CDCCE87D344F8F9FBFE667F689CE6B6B3A6039850C8DB2A336530731DC4903D95970676DF82583CCC8193B5861107C72362E3BA4AC096842428D1D7107A5F7182053CF7474E0D507CE32973124857FE48B
310
540F3961CEF244279DE03EB81420DB9EAC1384436FA353E879B1B182C7A8C75DA3C7F453DF353A1075D537A7BA6464B8F535A99AE14A9A2BBD90E350DD183B5CFABE3AF262350B1EF4FC9351399401471025A527C218A1E53BAB5A5AB765F5469B96525EACF23FA6B88CFF34456DC2A1DCE36E360F82A5202F42F062ED2BAD
310
579969AFDD8A6F504B010214000A0000080000CC70623B3DEE336E79000000790000001B00000000000000000000000000000000006175746F6465736B2D64657369676E2D7061636B6167652E786D6C504B01021400140006080800CC70623BD486FD9CA0000000F40000001300000000000000000000000000B20000005B
310
436F6E74656E745F54797065735D2E786D6C504B01021400140006080800CC70623B853B8169EB0000007C010000080000000000000000000000000083010000636F72652E786D6C504B01021400140006080800CC70623B55019EA25F0000007C000000070000000000000000000000000094020000636E782E786D6C504B
310
01021400140006080800CC70623BDBABAAF470010000D40300000C00000000000000000000000000180300006662782F636F72652E786D6C504B01021400140006080800CC70623B9C113CC27E0000009D0000000B00000000000000000000000000B20400006662782F636E782E786D6C504B01021400140006080800CC70
310
623B7DF2F77C2A010000120200003100000000000000000000000000590500006662782F41393633353835312D344632462D344230382D423046372D3739314545314133324237412F636F72652E786D6C504B01021400140006080800CC70623BAD7543B64E010000330300003000000000000000000000000000D2060000
310
6662782F41393633353835312D344632462D344230382D423046372D3739314545314133324237412F636E782E786D6C504B01021400140006080800CC70623BE75B7789680500003C10000034000000000000000000000000006E0800006662782F41393633353835312D344632462D344230382D423046372D3739314545
310
314133324237412F6F626A656374732E786D6C504B01021400140006080000CC70623B0000000000000000000000003500000000000000000000000000280E00006662782F41393633353835312D344632462D344230382D423046372D3739314545314133324237412F76657274696365732E62696E504B01021400140006
310
080800CC70623BF270F133060000000400000036000000000000000000000000007B0E00006662782F41393633353835312D344632462D344230382D423046372D3739314545314133324237412F747269616E676C65732E62696E504B01021400140006080000CC70623B0000000000000000000000003700000000000000
310
000000000000D50E00006662782F41393633353835312D344632462D344230382D423046372D3739314545314133324237412F617474726962757465732E62696E504B01021400140006080800CC70623B08DA0BD1900000004101000036000000000000000000000000002A0F00006662782F41393633353835312D344632
310
462D344230382D423046372D3739314545314133324237412F6469726563746F72792E786D6C504B01021400140006080800CC70623BEDD1DC58FD000000A00100003B000000000000000000000000000E1000006662782F41393633353835312D344632462D344230382D423046372D3739314545314133324237412F7265
310
736F75726365732F636F72652E786D6C504B0506000000000E000E0080040000641100000000
  0
XRECORD
  5
71E
102
{ACAD_REACTORS
330
1F7
102
}
330
1F7
100
AcDbXrecord
280
     1
102
MATERIAL
148
0.0
149
0.0
149
0.0
 93
        0
 94
       63
282
     0
 72
     1
 77
     1
171
     1
175
     1
179
     1
273
     0
  0
XRECORD
  5
1F8
102
{ACAD_REACTORS
330
1F7
102
}
330
1F7
100
AcDbXrecord
280
     1
 70
     1
 90
429727718
  1
30362254-06B7-45E0-A893-8CFA70E3D6BC
310
504B03040A0000080000CC70623B3DEE336E79000000790000001B0000006175746F6465736B2D64657369676E2D7061636B6167652E786D6C3C3F786D6C2076657273696F6E3D22312E302220656E636F64696E673D227574662D3822203F3E3C666F726D6174733E3C666F726D61743E687474703A2F2F736368656D612E
310
6175746F6465736B2E636F6D2F64657369676E2D7061636B6167652F323030393C2F666F726D61743E3C2F666F726D6174733E504B0304140006080800CC70623BD486FD9CA0000000F4000000130000005B436F6E74656E745F54797065735D2E786D6C7D8EC10E82300C865F65E91D8A1E8C310C0EEA1BF002731658846E
310
D98AC1B77784ABF1D8FE5FBFBF75BBCE937A534CCEB38643598122B6FEE978D0B0485F9C41B54DDD7D022595594E1A469170414C76A4D9A4D207E29CF43ECE46F218070CC6BECC4078ACAA135ACF422C856C0E68EA1BF5669944DDD7BCDE7B1F8E415D77AECB980613C2E4AC91FC167A2B244592486606FC29C8FD7F045B9A
310
EF7053A7E60B504B0304140006080800CC70623B1EC5D7A3EB0000007C01000008000000636F72652E786D6C8D90416EC3201045AF82665B6103C6756C6122AB4D4ED00B204C5C94182C03558F5F9C3852BBEB6A467FFE9B197D71FC9E6FE8CBACC17AD7032D0820E3B41FAD9B7A48F1820F808E52ACDEC75F36404ECDA687
310
4D0629A6D5A76597B477D1B89855E747B38B2A041301E95B6E7A08FAD3CCAA50296647B8168BD2573599823EBB0CA76447F43862C7BCCF5EAC59410E4DDD9C7973C2755553CCCFA4C603E3040F1565ED3B1FDE4E432BCA0D9622DAF9795FAF464533826484B498524CD807E51D79ED187F21878E10516EF63F505AC67F42C9
310
BA58B1FDDD071640D2FCC87D2045B96591CB3DA85CB7DCE40F504B0304140006080800CC70623B55019EA25F0000007C00000007000000636E782E786D6C4DCB3B0E80201045D1AD90E915ED2CF8AC45050C11660C8261F98AB1B07AC9C97D42D718D865D3E909258CFD00CCE24AC6E326A164D74DC0B4128928FF32603847
310
2BA13128B1252AC747C6BAB984FC68F0B87FE8960A5C09FE86CFB69FBA01504B0304140006080800CC70623B8C9102E971010000D40300000C0000006662782F636F72652E786D6CC5535B6E833010BC8AE5DF0A6C08340F1947A84D4ED00B38C6A128602363A31CBFCB234A53A551FA553EC09AD9F5CE8C31DB9E9B1AF5CA
310
7695D1198E428A91D2D214952E33ECDD315861B4E5CC1AE3BE9561A445A3323CC098B3D21ADFCE9034DA29ED00D5A6503328BA4E398C640D8B0C77F253352214DE4145770A5B214FA2546114020D759C75CE8200340D19DE981F0F6746269C33EFAB6266AB02A655C74A59CCF365BADC27CB5D902ED22848F6340DF238A141
310
BE88E2F57B92BFEDF23523433367AE6A2EEAA455C2A902F398D2751045018D3FA264435F3771F242571B4A1919CA6F9A7C5B3CD9E42BED16F12C776AEB308F40C848FC700B1139D4891EF410CEC810227CC6846F8386402064270EF5C5C709A05E49676C024C61FC95EA45ED154CA5211D1FF4FB8291A913A68E9B83EBBB33
310
E2A7673CDE118E5AE8124C0807CB8377834E366998436B950D7A7746DAD846D4CFD978E0F04FD455FC5D49D2D4C6FE9722321F10997F0F32DC47FE05504B0304140006080800CC70623BFFEA85907E0000009D0000000B0000006662782F636E782E786D6C4DCCD10A83201886E15B91FFDC95D95A811AB6F23E625948A6C3
310
E9D8E5AF46073BFAE0E1E365ED67B3E8ADC3CB78C7815C7240DA3DFC64DCC221C519D7805AC182F7F1EF06C88D9BE6703008B6049F9E274D7A1E938DBB5AE3D6131B2589BA0D3D965551E0B2EA732C9B9A624AAEB41E3A557677029960D9AFB4EF11165F504B0304140006080800CC70623B4FEEA4082C0100001202000031
310
0000006662782F39464131463745442D413632322D343644302D413938332D3331353338454246344243312F636F72652E786D6C8D515B6EC32010BC0AE2AB55850DD871ED0813254D72825EC00192A2C460F1A872FC42ED48ED5F7E00CDCECCCEB26C731F6FE05B39AFADE921293004CA082BB5B9F43086336A21D870E6AC
310
0D7F68109861543DCC30E4ECE26C9C164858139409093556AA051CBC570102714B8F1E7AF1A5C6A11862480C7F2DA6415C878B2A4891CA89C7990F2E050073937C42DE1DB7E4F87ED8A36D4329AA9B3D46DBAEAD504556557BD81DEBDD0761E52CE42C462D17B996298E3E6BE59E35C962CE821E1FF18553435012728A7187
310
0841987E927A8D9B35ADDF70BBC6989599FE4F1427F9A4286A132ABAC49D651EF234CD5CE04CDA78BA3DC2A8FB645D00B9DF8B57E215725C60BCA2A463E54C4CE327C7A65E1C7DB02E7DEFCBF594B864C5CA6CDBD49C957943E9FA5D5FBAF336F90F504B0304140006080800CC70623BAD7543B64E01000033030000300000
310
006662782F39464131463745442D413632322D343644302D413938332D3331353338454246344243312F636E782E786D6CD593CD6EC32010845F0571AD6CE3D48AD20813A9873E410FBD12D82434182C7EAAE6EDBB2424CD25871E7B41D6EC30B3FA84F9E67BB2E40B4234DE8DB46F1925E094D7C6ED479AD3AE5951B2113C
310
789FEE6C943839C1488B4C05DF079FE72A69D8C96C13AAD6B8631503449F83828872B949AC57D26200B826A308D316B4064D6E46FCDA41C05550DC9E483A00797BFD207EFB092A45DE9514C1BBD22178396BD39D891265658C238DEA00936C654E5E433CB65A26D9F6EDB5EBC14EBF49A45CB856E66048291F6939A9A81BB5
310
C8917738143CA680F4AA299D66A042CEB3354A2684DC9D8D178FE0D9B8B41CAAD720F880EE7EF93C0C18769E099ECC04D5A102C8049A8A05632F4DDF376CF1DE0F6BB65C2F8627B65A33C6BB62177CEBBDAD973006829F89F22E814B54F4BC2BE347F8AA8F681390B50FA73F804400B5F542E796F19FF974E7F78DB802FE05
310
E207504B0304140006080800CC70623B16AB87BA640500003C100000340000006662782F39464131463745442D413632322D343644302D413938332D3331353338454246344243312F6F626A656374732E786D6CAD575B6FA33818FD2B887DE6924B3BED8A326A92B68A663B534DD4D13E548A0C38942D60649B369D5FBFC7
310
600890A493BDE42160637FD7F31D7FF63E6FB3D478A55C242CBF3247B66B1A340F5994E4F19559CA8D75611A9F7D8F33263BCB4C232719BD32D5B4E97B316765A1A722BA21652A07B3B7B33F0D11D29C9A46981221AE4C113ED38CD8A4942CA2E2C58E882476BCD9DA23BB5ED8171B73523C0F841684D35CC252CCE79062D4
310
468DFA43D7747CCF51DF7D4FFDEB5593E3AB9CCA9FBEFE241792E4E19EB28198C968BAB8199F5D5A67D3E9C49A9E8F47D6EC76B6B0469F26EEFC7C3EBFBCBEB98462213924694B38DD98FE1D62C393D073EA4FADC5DAF04326852CCF6958F90F0F2B9BB5C48816348F90C7840A68EB78EDF68723159BCEE7891A6B95DDE9D3
310
BCEAEEE8086A6C6F9E5D4B59F0175C10A7A0820BAA5055C7473B5AE3CFDD452D602CD5DF12616444529E90D448938013FE6EFA58AA96F85E4F8C42275708571E98FE6827AF6B2B4AE3D7D83D64E5A64C53054DD3AF90BD06FEA9149565C94FCA0F6B834DC85599E4F2423B24DF0B6AFA979E534DFA9E7A4CC6FA631D486393
310
921829879BF5D781A373557BCB85E97FB90DB62B558F8795179C15944B051F40AB495CF35451D26A4727654E6D8033BD98EF82F21D91FF8AF2DD9982BCF1643BDD4EB516C9492E368C67C88DED563FC36D5EACF66DFF057C3658BDBFA69DF9578B3DA735B64F18C7F20770A9D45CFCF7FCF563D6456A277DBEF78A02637CA2
310
43B90A490AEAB94F72244481D24819A6C0E59B606BFA4B3025981DBB48EAB701D97BF19C577CC77F2D1B6C55A9EF3C732474C0B727303F625995056C3B02963D9EAC146BE78EC5FCEC7FA999EBC5EACBAAE41B12D27B4D2C0BBA49F244E2ECDC81B76B502F113D8F5EE8FB1BE3111CDD4FC2AA9B844CAB1288B68AB90A7CDC
310
1C166AB0D3DC5310625FCC14E779BFD0709F8890A629C9292B1B2DED31A4B0DA928CEE135085754027E3018A397D4D5427D15BD1330B677DC8934285AC3DF45A9EB68FF8F2B8FC0A509AFEECFD0FF2DE25CC6047F7214B195F07EFEB9A094D800F7BFAE8FED187B78EA8A3A400F115961BCAD1215E47C966530AF0EE8128FE
310
58CEBB996A8964FFA529A046635D9353B0336A8F700DDF46271A024E70B0B37C9DE01847591E54DED53D54202AB947E4076556AC49C6CA5C9E1226B7F1A7B1BE15DEED62C41B91E1B3E9AFAAA735036547343A925075041DF0A9979E893B391F8FCFA6967B3EFB644DCF6E5CEBFAE272625DCC6FAF3FB93793C5F90CE1EF57
310
407342756B10D1C489E8953CD1617E5CEECAD6F4EF8914CE5D5D504E5C3F1F9736DA62CFC11E00BCDDB8CC8A9466349744C1F75EBDA4DF09BA8A9E8C7A7E9991989E20E5DBDD6A6003664ED8F7A04A8DBE0DF6EAD9B9AA858342E47399053949D2C146EDB85DE4B176BB0965FBAC19BD19AA918E27FA50C1D22402E144464C
310
59462568E704B6E71915404CB72B8FF4EDE184DDAF753F284990D2C6926782963815403548A70C657FDEF80D2D9CEAA2AE4C1C76F60BFE74219A06527D6582DF6412526107381E55E353090704D085B52408D0933C4ED159D79BDA71BB4BC506F4831350EB6F979CD22D69BF7AC49B91A2C0A9DDA3D5CA36AD20FC478E37E6
310
1844E2352865EBCB6EA275A652E3836BE04EFB400BF1A2556F515F1FBB35B2AB35BD889C744FFA1004B5544B121E57F70215746DD2F5E2C1412B602CBF19455AC6C8E5E9922C4E01E65215385004546899059180EAFCF7A707CE7017CD8CDB0410789AB32C63B91E5CEBBBACB17AC6CD347A022D5075FD106377347AAABA7E
310
7D11590744509B44E205134DC1290F06580320F78E537D3D73540E06CB970B431F185308AD40BBD794D6D77003C5A36E8EAA54BA64597CD8F83BD552A080A365F7FF06504B0304140006080000CC70623B000000000000000000000000350000006662782F39464131463745442D413632322D343644302D413938332D3331
310
353338454246344243312F76657274696365732E62696E504B0304140006080800CC70623BF270F1330600000004000000360000006662782F39464131463745442D413632322D343644302D413938332D3331353338454246344243312F747269616E676C65732E62696E636660600000504B0304140006080000CC70623B
310
000000000000000000000000370000006662782F39464131463745442D413632322D343644302D413938332D3331353338454246344243312F617474726962757465732E62696E504B0304140006080800CC70623B08DA0BD19000000041010000360000006662782F39464131463745442D413632322D343644302D413938
310
332D3331353338454246344243312F6469726563746F72792E786D6C858F410AC3201045AF22B36F53E9A60B35CBEEBAE80D244E44489C6234F4F835464A48035D0DF398FF9F8AF63D0E6CC63039F212F8F9020C7D47C6792B21C5FE7403D62A1188E2E60C98D7234A5830286103A55745067B9D86B8A3CF9C7F90C11DE607
310
FB144396D7B6A82D282E9A152AD114D5EF2CB866EEE831B8EEA07A7BB5A8D7D61A2BAAEB7FD5F70921FF497D00504B0304140006080800CC70623B0D6EF93BFE000000A00100003B0000006662782F39464131463745442D413632322D343644302D413938332D3331353338454246344243312F7265736F75726365732F63
310
6F72652E786D6C8D50596E833010BD0A9ADFCA60B334011947A8694ED00B586642AC041B79A97AFC9A40A5F6AF3F33A3B7689E1E3F7DCD8FEC139DD7D6F4C0720A191A65476DA61E62B892236427C19DB5E1970C322367EC618541F0C9D9B8EC90B226A009093576C41D94DE63804C3DD2D18357379C652E63480A7FCF17A9
310
EE72C29CE5894E3AC17D702940B63D59270887DE46A7D0F36263058F518FBB468FE9A7BE6A7420864373B8D4873369AA8691FA421B3294352543C5CAF65C0F6FEF43CB8BD52C78D0F34F46E550061C419494B6843142CB0F5677F4B52BEB177AEC28E5C52AFF638ACBF84F53D42654E51E77B379102C05791282176B5F693D
310
CB4C7BED567C03504B010214000A0000080000CC70623B3DEE336E79000000790000001B00000000000000000000000000000000006175746F6465736B2D64657369676E2D7061636B6167652E786D6C504B01021400140006080800CC70623BD486FD9CA0000000F40000001300000000000000000000000000B20000005B
310
436F6E74656E745F54797065735D2E786D6C504B01021400140006080800CC70623B1EC5D7A3EB0000007C010000080000000000000000000000000083010000636F72652E786D6C504B01021400140006080800CC70623B55019EA25F0000007C000000070000000000000000000000000094020000636E782E786D6C504B
310
01021400140006080800CC70623B8C9102E971010000D40300000C00000000000000000000000000180300006662782F636F72652E786D6C504B01021400140006080800CC70623BFFEA85907E0000009D0000000B00000000000000000000000000B30400006662782F636E782E786D6C504B01021400140006080800CC70
310
623B4FEEA4082C0100001202000031000000000000000000000000005A0500006662782F39464131463745442D413632322D343644302D413938332D3331353338454246344243312F636F72652E786D6C504B01021400140006080800CC70623BAD7543B64E010000330300003000000000000000000000000000D5060000
310
6662782F39464131463745442D413632322D343644302D413938332D3331353338454246344243312F636E782E786D6C504B01021400140006080800CC70623B16AB87BA640500003C1000003400000000000000000000000000710800006662782F39464131463745442D413632322D343644302D413938332D3331353338
310
454246344243312F6F626A656374732E786D6C504B01021400140006080000CC70623B0000000000000000000000003500000000000000000000000000270E00006662782F39464131463745442D413632322D343644302D413938332D3331353338454246344243312F76657274696365732E62696E504B01021400140006
310
080800CC70623BF270F133060000000400000036000000000000000000000000007A0E00006662782F39464131463745442D413632322D343644302D413938332D3331353338454246344243312F747269616E676C65732E62696E504B01021400140006080000CC70623B0000000000000000000000003700000000000000
310
000000000000D40E00006662782F39464131463745442D413632322D343644302D413938332D3331353338454246344243312F617474726962757465732E62696E504B01021400140006080800CC70623B08DA0BD190000000410100003600000000000000000000000000290F00006662782F39464131463745442D413632
310
322D343644302D413938332D3331353338454246344243312F6469726563746F72792E786D6C504B01021400140006080800CC70623B0D6EF93BFE000000A00100003B000000000000000000000000000D1000006662782F39464131463745442D413632322D343644302D413938332D3331353338454246344243312F7265
310
736F75726365732F636F72652E786D6C504B0506000000000E000E0080040000641100000000
  0
XRECORD
  5
720
102
{ACAD_REACTORS
330
173
102
}
330
173
100
AcDbXrecord
280
     1
102
MATERIAL
148
0.0
149
0.0
149
0.0
 93
        0
 94
       63
282
     0
 72
     1
 77
     1
171
     1
175
     1
179
     1
273
     0
  0
XRECORD
  5
175
102
{ACAD_REACTORS
330
173
102
}
330
173
100
AcDbXrecord
280
     1
270
     1
271
     1
  0
XRECORD
  5
174
102
{ACAD_REACTORS
330
173
102
}
330
173
100
AcDbXrecord
280
     1
270
     1
271
     1
  0
XRECORD
  5
1FB
102
{ACAD_REACTORS
330
173
102
}
330
173
100
AcDbXrecord
280
     1
 70
     0
 90
1673772943
  1
ECE7A1D2-D628-4531-984C-D00F80459256
310
504B03040A0000080000CC70623B3DEE336E79000000790000001B0000006175746F6465736B2D64657369676E2D7061636B6167652E786D6C3C3F786D6C2076657273696F6E3D22312E302220656E636F64696E673D227574662D3822203F3E3C666F726D6174733E3C666F726D61743E687474703A2F2F736368656D612E
310
6175746F6465736B2E636F6D2F64657369676E2D7061636B6167652F323030393C2F666F726D61743E3C2F666F726D6174733E504B0304140006080800CC70623BD486FD9CA0000000F4000000130000005B436F6E74656E745F54797065735D2E786D6C7D8EC10E82300C865F65E91D8A1E8C310C0EEA1BF002731658846E
310
D98AC1B77784ABF1D8FE5FBFBF75BBCE937A534CCEB38643598122B6FEE978D0B0485F9C41B54DDD7D022595594E1A469170414C76A4D9A4D207E29CF43ECE46F218070CC6BECC4078ACAA135ACF422C856C0E68EA1BF5669944DDD7BCDE7B1F8E415D77AECB980613C2E4AC91FC167A2B244592486606FC29C8FD7F045B9A
310
EF7053A7E60B504B0304140006080800CC70623BD9DDAED0EC0000007C01000008000000636F72652E786D6C8D90416EC3201045AF82665B61836D9CD8C2444DD39CA01740405C94182C03558F5F9C3852BBEB6A467FFE9B197D7EF89E6EE8CB2CC17A37002D0820E394D7D68D03A478C17B4007C117EFE32F1B20272733C0
310
2A83E0E3E2D3BC49CABB685CCCAAF3DA6CA20CC14440EA969B0182FA34932C648AD911AEC52CD5558EA6A0CF2EC329598D1E47ACCEFBECC59A050463A7EA5833865FEBDD0E37353BE3EE8DBDE3F6786A48D375FBF6CC78B9C282473B3DEFABC5C86834888A900E538A49F5419B9EB47DD5BC907D4F082F57FB1F28CDFA9F50
310
B22ED6D5F6EE030B20687EE43E10BC5CB3C8E51E54AE6B6EE207504B0304140006080800CC70623B55019EA25F0000007C00000007000000636E782E786D6C4DCB3B0E80201045D1AD90E915ED2CF8AC45050C11660C8261F98AB1B07AC9C97D42D718D865D3E909258CFD00CCE24AC6E326A164D74DC0B4128928FF326038
310
472BA13128B1252AC747C6BAB984FC68F0B87FE8960A5C09FE86CFB69FBA01504B0304140006080800CC70623BA24EB22D72010000D40300000C0000006662782F636F72652E786D6CC5535B6E833010BC8AE5DF0A6C5E49888CA3A6694ED00B38E05014B091B1518EDFE511A5A9D228FD2A1F60CDEC7A67C6986DCE4D8D7A
310
69BA4AAB0C073EC548AA5C17952A33ECECD15B61B4E1CC686DBF9561A44423333CC098B3D268D7CE50AE9595CA02AA74216750749DB418E5352C32DCE59FB211BE70162ABA93DF8AFC244AE9073ED050C759670D0840D390E18DF9F1706664C23973AE2A66B62A605A75ACA4C13C4976E1364A12EF355A2EBD384AF65EFA96
310
BC7B8BED2EA6719AAE16FB8491A199335B351775B991C2CA02F390D2D40B028F861F41BCA68B7518BFD0D59A524686F29B26D7164F36B94AD9289CE54E6D1DE6010819891F6E21228B3AD1831EC219194284CF98F06DD01008846CC5A1BEF83801D4CBDC6A1303536877A57A513B0953A94FC707FDBE6064EA84A9E3E6E0FA
310
EE8CF0E9198F7784A316AA0413C2C2F2E0ECA0934D1AE6D05A69BCDE9E91D2A611F573361E38FC1375157F5752AE6B6DFE4B11990F88CCBF0719EE23FF02504B0304140006080800CC70623B408A7D3B7C0000009D0000000B0000006662782F636E782E786D6C4DCCD10A83201886E15B91FFDC552A92A0064DBC8F581632
310
D3703A76F9ABD1C18E3E78F878E5F0D9027ABBFCF2292AE86E2D20171F69F6715550CB827B40839639A5F2770314A7CD293819B45C73AAFB45B35BA61ACAA1C1C7E7855C58C15BC331339661262CC762340413D68D77DA5B42298546CBE6573AF60CEB2F504B0304140006080800CC70623B449FB9BD290100001202000031
310
0000006662782F36394639363044362D344446342D343946362D394244322D3234314243333846323333332F636F72652E786D6C8D515B6EC32010BC0AE22B55850D98B871848994463E412FE002495162B07854397EA176A4F62F3F2C9A9D991D587EB84F37F0AD7D30CEF6905418026DA553C65E7A98E219ED203808EE9D
310
8B7F6810D871D23D2C3014FCE25D9A57483A1BB58D19B54EE9151C43D0110279CB971E06F9A5A7B11A53CC8C70ADE6515EC78BAE4895DB992778883E0700CB907242D17643D7E2538BD869608875438BBAE38922CAC8F1BDD90DB4691A5E2F42C153326A951B95E398B3D1FE599322163C9AE9115F7A3D46ADA0A018778810
310
84E907617BDCEE297BC5BB3DC6BC2EF47FA234AB2745C9D8D8D035EE220B50105E2F0DC1954B9FB747187D9F9D8FA0CCDB042D5FA0C015C65B42DF78BD10F3F3B363CB56C7109DCFDFBBB97E662ED92EB62D13BC2E1BCAE5777DB9966D8A1F504B0304140006080800CC70623BAD7543B64E01000033030000300000006662
310
782F36394639363044362D344446342D343946362D394244322D3234314243333846323333332F636E782E786D6CD593CD6EC32010845F0571AD6CE3D48AD20813A9873E410FBD12D82434182C7EAAE6EDBB2424CD25871E7B41D6EC30B3FA84F9E67BB2E40B4234DE8DB46F1925E094D7C6ED479AD3AE5951B2113C789FEE
310
6C943839C1488B4C05DF079FE72A69D8C96C13AAD6B8631503449F83828872B949AC57D26200B826A308D316B4064D6E46FCDA41C05550DC9E483A00797BFD207EFB092A45DE9514C1BBD22178396BD39D891265658C238DEA00936C654E5E433CB65A26D9F6EDB5EBC14EBF49A45CB856E66048291F6939A9A81BB5C89177
310
38143CA680F4AA299D66A042CEB3354A2684DC9D8D178FE0D9B8B41CAAD720F880EE7EF93C0C18769E099ECC04D5A102C8049A8A05632F4DDF376CF1DE0F6BB65C2F8627B65A33C6BB62177CEBBDAD973006829F89F22E814B54F4BC2BE347F8AA8F681390B50FA73F804400B5F542E796F19FF974E7F78DB802FE05E20750
310
4B0304140006080800CC70623B8D05915C650500003B100000340000006662782F36394639363044362D344446342D343946362D394244322D3234314243333846323333332F6F626A656374732E786D6CAD575B6FA33814FE2B887D06429276DA1565D4266D158D3A339A6846FB502932E050B66023DB74D2FDF5FB190C01
310
9276B2973C046C8ECFF53B17071F77456EBD502133CEAE6CDF9DD81665314F32965ED995DA3A17B6F5310C04E7AA47665B8C14F4CAD6DB7618A48257A5D94AE89654B91AEDDEDDFC61C998326A5B714EA4BCB265FC440BE2924AF184CA6737218AB8E976E7FA6E4338649B0A523E8D98964450A6A029F619B8588D52FE7039
310
B1BD30F0F4F730D0FF866AF6369557DB33949F31A9088B0F848DD8CCFCF9F2767A76E99CCDE733677E3EF59D9BBB9BA5E37F984D16E78BC5E5F5ED25044B25C0C96822E8D60EEFE11B91C581D77CEA34368A1F5329E68CD1B8B61F16D63A1B8E092D294B10C78C4A48EB593D192E7DED9BDEE7995E1B91FDEDD3ACEA9FE831
310
6A756F9F7D4D79F4274C90A7A04248AA51D5F8C718DAE06FB2F75AC4796EBE65D22A88A22223B995679120E2D50E41AA49C260C046A35368846B0BECD0DFF3EBEB8AD4F835768F69B9ADF25C43D30E6B646F807FAA64AD59F61715C7A54127C4AACA98BA3006A9D792DAE165E0D59B61A01FB3A9F9D838D2DAE62445C86166
310
F37564E842E7DE6A69879FEEA2DD5AE7E371E1A5E025154AC307D06A03D73EB5978C58FFA4C8E9033066E0F3BD53BEC1F39F91BE7B55103791EDE6BBB991A2046172CB4581D8B893FA674DDA17A77B3B7C413D1B511FD2743BFF8A38F03A658705E3ADF8015C3A3417FF3D7E439FF591DA0B5F18BC20C1B8981957AE6392A3
310
F43C640C01D1A0B4728E2DD4F26DB4B3C3152A252A3B4E913CEC1C72F012782FF88EFF8637AA552DBEF76408E8A8DE9E50F9E1CB3A2DA0DB1B6039A893B56063DC5B3E3FFB5F72E67AB9FEB4AEC496C4F4C1149625DD662C53E89D7BF0F6151A046260D1337DFDC94502430F83B0EE07A130A224BCAD7DAE1D9FB6CD422FF6
310
920702629C4BB9AE79C12F243C6432A6794E18E5552BA56B431AAB5D91317302B2B071E86C3A42B1A02F999E24061403B5D0EB639195DA655DD3EBEAB4FB862DDF579F014AD0E73C22F99E28DA57FB98E75C6CA2D74D53086D600F4786E0FE3144B771A8A7B900F03594DB8A633CBC49B2EDB69228BB479CF863B5E807AAAB
310
23872F6DFEB4129B949CA33823F58830E86D65621E10047D9DB34D862E8EAC3C2ABC2F7B2C40D67CDFE01F5545B92105AF983AC54D93D69E56FB8E797F88913F898A9FEC705D3F9D1B54EC8426FB500D40A03BD0119B06E1B95DDC7EB8F6975367793EBD70E66733DFB9BC982F9CE564727731999F5D4ECFCE3B8D6A4DC2A0
310
6D50FD148437D110834A64C6CDDF57FBACB5C307A2A477DFE4939736CFEF2B175371E0E10CF0DD1D5C15654E0BCA14D1E87DD02FF93782A162C0A3D95F1524A52770F972BF1EE9809D13CE7DD599467F8ECE9ADD85CE85A34CD45355448C64F9E8A031DC2D596ACC6E5DD93D9B82DE2EF5CAF81363A8E47996A0DE24564A79
310
4115AACE09C55E14540231FDA13C319787134EBF34E3A022514E5B4D9E0826E25C02D5805B15ABE1BEF51B26383D445DD9E875EE33FE4C22DA16427D65A3BCA92CA6D28DD01DF5DC53330704308475351050232CCD31583787BA75774AFB06E5070DD0C8EF484E19968C5D83BA5B90B244D31E54D55A372320FE4786B7EA58
310
44E135AA5467CB7EA333A61683CC6A8C3257034C10CF46F40EF9F5BE59BE5BD30C3C72D235E95D10345C1D45445A5F0BB47E46A5EBE5570F9380B5FA629579952296A773720405982B9DE04011506178964401AA8BDF1FBF0A8EAB6861DD6580C0E38217056766716DAEB2D6FA0917D3E4116581EADB879C4E7CFFB11EFACD
310
3D641311495D92C8676CB409A72D18610D803CE8A626049E8EC1887CB5B44CC39883690DDA8399B4B9855B481E7D71D4A9D22F96E5BB73BF5793020C02137BF837504B0304140006080000CC70623B000000000000000000000000350000006662782F36394639363044362D344446342D343946362D394244322D32343142
310
43333846323333332F76657274696365732E62696E504B0304140006080800CC70623BF270F1330600000004000000360000006662782F36394639363044362D344446342D343946362D394244322D3234314243333846323333332F747269616E676C65732E62696E636660600000504B0304140006080000CC70623B0000
310
00000000000000000000370000006662782F36394639363044362D344446342D343946362D394244322D3234314243333846323333332F617474726962757465732E62696E504B0304140006080800CC70623B08DA0BD19000000041010000360000006662782F36394639363044362D344446342D343946362D394244322D
310
3234314243333846323333332F6469726563746F72792E786D6C858F410AC3201045AF22B36F53E9A60B35CBEEBAE80D244E44489C6234F4F835464A48035D0DF398FF9F8AF63D0E6CC63039F212F8F9020C7D47C6792B21C5FE7403D62A1188E2E60C98D7234A5830286103A55745067B9D86B8A3CF9C7F90C11DE607FB14
310
4396D7B6A82D282E9A152AD114D5EF2CB866EEE831B8EEA07A7BB5A8D7D61A2BAAEB7FD5F70921FF497D00504B0304140006080800CC70623BCA768048FE000000A00100003B0000006662782F36394639363044362D344446342D343946362D394244322D3234314243333846323333332F7265736F75726365732F636F72
310
652E786D6C8D50596E833010BD0A9ADFCA60D600328E9AA639412F609909B1126CE4A5EAF16B0295DABFFECC8CDEA2797AECF8353F924FB44E193D409E5248504B332A3D0D10FC95B4901C39B3C6F85F3248B49871801506CE266BC2B243D2688FDA47549B11775038871E12F988C7004EDE7016A9083E2ADC3D5D84BC8B09
310
D33C8D74D471E6BC8D0192EDC93A815B742658898E651BCB59086ADC356A8C3FD555A1055ED7E7E254D615792D0F075295F585746FF53B694EE78A565DD736979A65AB9933AFE69F8CD2A2F038022F28ED489E135A7CE4554F9BBEA85E68DB53CAB255FEC71496F19FA6A0B42F8B3DEE6673C0F318E4497096AD7DC5F52C33
310
EEB55BFE0D504B010214000A0000080000CC70623B3DEE336E79000000790000001B00000000000000000000000000000000006175746F6465736B2D64657369676E2D7061636B6167652E786D6C504B01021400140006080800CC70623BD486FD9CA0000000F40000001300000000000000000000000000B20000005B436F
310
6E74656E745F54797065735D2E786D6C504B01021400140006080800CC70623BD9DDAED0EC0000007C010000080000000000000000000000000083010000636F72652E786D6C504B01021400140006080800CC70623B55019EA25F0000007C000000070000000000000000000000000095020000636E782E786D6C504B0102
310
1400140006080800CC70623BA24EB22D72010000D40300000C00000000000000000000000000190300006662782F636F72652E786D6C504B01021400140006080800CC70623B408A7D3B7C0000009D0000000B00000000000000000000000000B50400006662782F636E782E786D6C504B01021400140006080800CC70623B
310
449FB9BD290100001202000031000000000000000000000000005A0500006662782F36394639363044362D344446342D343946362D394244322D3234314243333846323333332F636F72652E786D6C504B01021400140006080800CC70623BAD7543B64E010000330300003000000000000000000000000000D20600006662
310
782F36394639363044362D344446342D343946362D394244322D3234314243333846323333332F636E782E786D6C504B01021400140006080800CC70623B8D05915C650500003B10000034000000000000000000000000006E0800006662782F36394639363044362D344446342D343946362D394244322D32343142433338
310
46323333332F6F626A656374732E786D6C504B01021400140006080000CC70623B0000000000000000000000003500000000000000000000000000250E00006662782F36394639363044362D344446342D343946362D394244322D3234314243333846323333332F76657274696365732E62696E504B010214001400060808
310
00CC70623BF270F13306000000040000003600000000000000000000000000780E00006662782F36394639363044362D344446342D343946362D394244322D3234314243333846323333332F747269616E676C65732E62696E504B01021400140006080000CC70623B00000000000000000000000037000000000000000000
310
00000000D20E00006662782F36394639363044362D344446342D343946362D394244322D3234314243333846323333332F617474726962757465732E62696E504B01021400140006080800CC70623B08DA0BD190000000410100003600000000000000000000000000270F00006662782F36394639363044362D344446342D
310
343946362D394244322D3234314243333846323333332F6469726563746F72792E786D6C504B01021400140006080800CC70623BCA768048FE000000A00100003B000000000000000000000000000B1000006662782F36394639363044362D344446342D343946362D394244322D3234314243333846323333332F7265736F
310
75726365732F636F72652E786D6C504B0506000000000E000E0080040000621100000000
  0
XRECORD
  5
176
102
{ACAD_REACTORS
330
173
102
}
330
173
100
AcDbXrecord
280
     1
270
     1
271
     1
  0
XRECORD
  5
177
102
{ACAD_REACTORS
330
173
102
}
330
173
100
AcDbXrecord
280
     1
270
     1
271
     1
  0
XRECORD
  5
752
102
{ACAD_REACTORS
330
751
102
}
330
751
100
AcDbXrecord
280
     1
102
DISPLAYNAME
  1
Metric50
102
FLAGS
 90
        0
  0
CELLSTYLEMAP
  5
713
102
{ACAD_REACTORS
330
162
102
}
330
162
100
AcDbCellStyleMap
 90
        3
300
CELLSTYLE
  1
TABLEFORMAT_BEGIN
 90
        5
170
     1
 91
        0
 92
    32768
 62
   257
 93
        1
300
CONTENTFORMAT
  1
CONTENTFORMAT_BEGIN
 90
        0
 91
        0
 92
      512
 93
        0
300

 40
0.0
140
1.0
 94
        5
 62
     0
340
11
144
6.0
309
CONTENTFORMAT_END
171
     1
301
MARGIN
  1
CELLMARGIN_BEGIN
 40
1.5
 40
1.5
 40
1.5
 40
1.5
 40
4.5
 40
4.5
309
CELLMARGIN_END
 94
        6
 95
        1
302
GRIDFORMAT
  1
GRIDFORMAT_BEGIN
 90
        0
 91
        1
 62
     0
 92
       -2
340
14
 93
        0
 40
1.125
309
GRIDFORMAT_END
 95
        2
302
GRIDFORMAT
  1
GRIDFORMAT_BEGIN
 90
        0
 91
        1
 62
     0
 92
       -2
340
14
 93
        0
 40
1.125
309
GRIDFORMAT_END
 95
        4
302
GRIDFORMAT
  1
GRIDFORMAT_BEGIN
 90
        0
 91
        1
 62
     0
 92
       -2
340
14
 93
        0
 40
1.125
309
GRIDFORMAT_END
 95
        8
302
GRIDFORMAT
  1
GRIDFORMAT_BEGIN
 90
        0
 91
        1
 62
     0
 92
       -2
340
14
 93
        0
 40
1.125
309
GRIDFORMAT_END
 95
       16
302
GRIDFORMAT
  1
GRIDFORMAT_BEGIN
 90
        0
 91
        1
 62
     0
 92
       -2
340
14
 93
        0
 40
1.125
309
GRIDFORMAT_END
 95
       32
302
GRIDFORMAT
  1
GRIDFORMAT_BEGIN
 90
        0
 91
        1
 62
     0
 92
       -2
340
14
 93
        0
 40
1.125
309
GRIDFORMAT_END
309
TABLEFORMAT_END
  1
CELLSTYLE_BEGIN
 90
        1
 91
        1
300
_TITLE
309
CELLSTYLE_END
300
CELLSTYLE
  1
TABLEFORMAT_BEGIN
 90
        5
170
     1
 91
        0
 92
        0
 62
   257
 93
        1
300
CONTENTFORMAT
  1
CONTENTFORMAT_BEGIN
 90
        0
 91
        0
 92
      512
 93
        0
300

 40
0.0
140
1.0
 94
        5
 62
     0
340
11
144
4.5
309
CONTENTFORMAT_END
171
     1
301
MARGIN
  1
CELLMARGIN_BEGIN
 40
1.5
 40
1.5
 40
1.5
 40
1.5
 40
4.5
 40
4.5
309
CELLMARGIN_END
 94
        6
 95
        1
302
GRIDFORMAT
  1
GRIDFORMAT_BEGIN
 90
        0
 91
        1
 62
     0
 92
       -2
340
14
 93
        0
 40
1.125
309
GRIDFORMAT_END
 95
        2
302
GRIDFORMAT
  1
GRIDFORMAT_BEGIN
 90
        0
 91
        1
 62
     0
 92
       -2
340
14
 93
        0
 40
1.125
309
GRIDFORMAT_END
 95
        4
302
GRIDFORMAT
  1
GRIDFORMAT_BEGIN
 90
        0
 91
        1
 62
     0
 92
       -2
340
14
 93
        0
 40
1.125
309
GRIDFORMAT_END
 95
        8
302
GRIDFORMAT
  1
GRIDFORMAT_BEGIN
 90
        0
 91
        1
 62
     0
 92
       -2
340
14
 93
        0
 40
1.125
309
GRIDFORMAT_END
 95
       16
302
GRIDFORMAT
  1
GRIDFORMAT_BEGIN
 90
        0
 91
        1
 62
     0
 92
       -2
340
14
 93
        0
 40
1.125
309
GRIDFORMAT_END
 95
       32
302
GRIDFORMAT
  1
GRIDFORMAT_BEGIN
 90
        0
 91
        1
 62
     0
 92
       -2
340
14
 93
        0
 40
1.125
309
GRIDFORMAT_END
309
TABLEFORMAT_END
  1
CELLSTYLE_BEGIN
 90
        2
 91
        1
300
_HEADER
309
CELLSTYLE_END
300
CELLSTYLE
  1
TABLEFORMAT_BEGIN
 90
        5
170
     1
 91
        0
 92
        0
 62
   257
 93
        1
300
CONTENTFORMAT
  1
CONTENTFORMAT_BEGIN
 90
        0
 91
        0
 92
      512
 93
        0
300

 40
0.0
140
1.0
 94
        2
 62
     0
340
11
144
4.5
309
CONTENTFORMAT_END
171
     1
301
MARGIN
  1
CELLMARGIN_BEGIN
 40
1.5
 40
1.5
 40
1.5
 40
1.5
 40
4.5
 40
4.5
309
CELLMARGIN_END
 94
        6
 95
        1
302
GRIDFORMAT
  1
GRIDFORMAT_BEGIN
 90
        0
 91
        1
 62
     0
 92
       -2
340
14
 93
        0
 40
1.125
309
GRIDFORMAT_END
 95
        2
302
GRIDFORMAT
  1
GRIDFORMAT_BEGIN
 90
        0
 91
        1
 62
     0
 92
       -2
340
14
 93
        0
 40
1.125
309
GRIDFORMAT_END
 95
        4
302
GRIDFORMAT
  1
GRIDFORMAT_BEGIN
 90
        0
 91
        1
 62
     0
 92
       -2
340
14
 93
        0
 40
1.125
309
GRIDFORMAT_END
 95
        8
302
GRIDFORMAT
  1
GRIDFORMAT_BEGIN
 90
        0
 91
        1
 62
     0
 92
       -2
340
14
 93
        0
 40
1.125
309
GRIDFORMAT_END
 95
       16
302
GRIDFORMAT
  1
GRIDFORMAT_BEGIN
 90
        0
 91
        1
 62
     0
 92
       -2
340
14
 93
        0
 40
1.125
309
GRIDFORMAT_END
 95
       32
302
GRIDFORMAT
  1
GRIDFORMAT_BEGIN
 90
        0
 91
        1
 62
     0
 92
       -2
340
14
 93
        0
 40
1.125
309
GRIDFORMAT_END
309
TABLEFORMAT_END
  1
CELLSTYLE_BEGIN
 90
        3
 91
        2
300
_DATA
309
CELLSTYLE_END
  0
XRECORD
  5
71D
102
{ACAD_REACTORS
330
162
102
}
330
162
100
AcDbXrecord
280
     1
102
ACAD_ROUNDTRIP_PRE2007_TABLESTYLE
 90
      512
 91
        0
  1

 92
      512
 93
        0
  2

 94
      512
 95
        0
  3

  0
XRECORD
  5
72C
102
{ACAD_REACTORS
330
72B
102
}
330
72B
100
AcDbXrecord
280
     1
102
RTVSPost2010Prop28
280
     1
102
RTVSPost2010PropOp28
 70
     1
102
RTVSPost2010Prop29
280
     1
102
RTVSPost2010PropOp29
 70
     1
102
RTVSPost2010Prop30
280
     0
102
RTVSPost2010PropOp30
 70
     1
102
RTVSPost2010Prop31
280
     0
102
RTVSPost2010PropOp31
 70
     1
102
RTVSPost2010Prop32
280
     0
102
RTVSPost2010PropOp32
 70
     1
102
RTVSPost2010Prop33
280
     0
102
RTVSPost2010PropOp33
 70
     1
102
RTVSPost2010Prop34
280
     0
102
RTVSPost2010PropOp34
 70
     1
102
RTVSPost2010Prop35
280
     0
102
RTVSPost2010PropOp35
 70
     1
102
RTVSPost2010Prop36
280
     0
102
RTVSPost2010PropOp36
 70
     1
102
RTVSPost2010Prop37
 90
       50
102
RTVSPost2010PropOp37
 70
     1
102
RTVSPost2010Prop38
140
0.0
102
RTVSPost2010PropOp38
 70
     1
102
RTVSPost2010Prop39
140
1.0
102
RTVSPost2010PropOp39
 70
     1
102
RTVSPost2010Prop40
 90
        0
102
RTVSPost2010PropOp40
 70
     1
102
RTVSPost2010Prop41ColorIndex
 90
       18
102
RTVSPost2010Prop41ColorRGB
 90
        0
102
RTVSPost2010PropOp41
 70
     1
102
RTVSPost2010Prop42
 90
       50
102
RTVSPost2010PropOp42
 70
     1
102
RTVSPost2010Prop43
 90
        3
102
RTVSPost2010PropOp43
 70
     1
102
RTVSPost2010Prop44ColorIndex
 90
        5
102
RTVSPost2010Prop44ColorRGB
 90
      255
102
RTVSPost2010PropOp44
 70
     1
102
RTVSPost2010Prop45
280
     0
102
RTVSPost2010PropOp45
 70
     1
102
RTVSPost2010Prop46
 90
       50
102
RTVSPost2010PropOp46
 70
     1
102
RTVSPost2010Prop47
 90
       50
102
RTVSPost2010PropOp47
 70
     1
102
RTVSPost2010Prop48
 90
       50
102
RTVSPost2010PropOp48
 70
     1
102
RTVSPost2010Prop49
280
     0
102
RTVSPost2010PropOp49
 70
     1
102
RTVSPost2010Prop50
 90
       50
102
RTVSPost2010PropOp50
 70
     1
102
RTVSPost2010Prop51ColorIndex
 90
      256
102
RTVSPost2010Prop51ColorRGB
 90
-16777216
102
RTVSPost2010PropOp51
 70
     0
102
RTVSPost2010Prop52
140
1.0
102
RTVSPost2010PropOp52
 70
     0
102
RTVSPost2010Prop53
 90
        2
102
RTVSPost2010PropOp53
 70
     1
102
RTVSPost2010Prop54
  1
strokes_ogs.tif
102
RTVSPost2010PropOp54
 70
     1
102
RTVSPost2010Prop55
280
     0
102
RTVSPost2010PropOp55
 70
     1
102
RTVSPost2010Prop56
140
1.0
102
RTVSPost2010PropOp56
 70
     1
102
RTVSPost2010Prop57
140
1.0
102
RTVSPost2010PropOp57
 70
     1
102
RTVSPropertyOp0
 70
     1
102
RTVSPropertyOp1
 70
     1
102
RTVSPropertyOp2
 70
     1
102
RTVSPropertyOp3
 70
     1
102
RTVSPropertyOp4
 70
     1
102
RTVSPropertyOp5
 70
     1
102
RTVSPropertyOp6
 70
     1
102
RTVSPropertyOp7
 70
     1
102
RTVSPropertyOp8
 70
     1
102
RTVSPropertyOp9
 70
     1
102
RTVSPropertyOp10
 70
     1
102
RTVSPropertyOp11
 70
     1
102
RTVSPropertyOp12
 70
     1
102
RTVSPropertyOp13
 70
     1
102
RTVSPropertyOp14
 70
     1
102
RTVSPropertyOp15
 70
     1
102
RTVSPropertyOp16
 70
     1
102
RTVSPropertyOp17
 70
     1
102
RTVSPropertyOp18
 70
     1
102
RTVSPropertyOp19
 70
     1
102
RTVSPropertyOp20
 70
     1
102
RTVSPropertyOp21
 70
     1
102
RTVSPropertyOp22
 70
     1
102
RTVSPropertyOp23
 70
     1
102
RTVSPropertyOp24
 70
     1
102
RTVSPropertyOp25
 70
     1
102
RTVSPropertyOp26
 70
     1
102
RTVSPropertyOp27
 70
     1
102
RTVSPropertyOp28
 70
     1
102
RTVSPropertyOp29
 70
     1
102
RTVSPropertyOp30
 70
     1
102
RTVSPropertyOp31
 70
     1
102
RTVSPropertyOp32
 70
     1
102
RTVSPropertyOp33
 70
     1
102
RTVSPropertyOp34
 70
     1
102
RTVSPropertyOp35
 70
     1
102
RTVSPropertyOp36
 70
     1
102
RTVSPropertyOp37
 70
     1
102
RTVSPropertyOp38
 70
     1
102
RTVSPropertyOp39
 70
     1
102
RTVSPropertyOp40
 70
     1
102
RTVSPropertyOp41
 70
     1
102
RTVSPropertyOp42
 70
     1
102
RTVSPropertyOp43
 70
     1
102
RTVSPropertyOp44
 70
     1
102
RTVSPropertyOp45
 70
     1
102
RTVSPropertyOp46
 70
     1
102
RTVSPropertyOp47
 70
     1
102
RTVSPropertyOp48
 70
     1
102
RTVSPropertyOp49
 70
     1
102
RTVSPropertyOp50
 70
     1
102
RTVSPropertyOp51
 70
     0
102
RTVSPropertyOp52
 70
     0
102
RTVSPropertyOp53
 70
     1
102
RTVSPropertyOp54
 70
     1
102
RTVSPropertyOp55
 70
     1
102
RTVSPropertyOp56
 70
     1
102
RTVSPropertyOp57
 70
     1
102
RTVSPropertyOp58
 70
     1
102
RTVSPropertyOp59
 70
     1
102
RTVSPropertyOp60
 70
     1
102
RTVSPropertyOp61
 70
     1
102
RTVSPropertyOp62
 70
     1
  0
XRECORD
  5
72A
102
{ACAD_REACTORS
330
729
102
}
330
729
100
AcDbXrecord
280
     1
102
RTVSPost2010Prop28
280
     0
102
RTVSPost2010PropOp28
 70
     1
102
RTVSPost2010Prop29
280
     1
102
RTVSPost2010PropOp29
 70
     1
102
RTVSPost2010Prop30
280
     1
102
RTVSPost2010PropOp30
 70
     1
102
RTVSPost2010Prop31
280
     0
102
RTVSPost2010PropOp31
 70
     1
102
RTVSPost2010Prop32
280
     0
102
RTVSPost2010PropOp32
 70
     1
102
RTVSPost2010Prop33
280
     0
102
RTVSPost2010PropOp33
 70
     1
102
RTVSPost2010Prop34
280
     0
102
RTVSPost2010PropOp34
 70
     1
102
RTVSPost2010Prop35
280
     0
102
RTVSPost2010PropOp35
 70
     1
102
RTVSPost2010Prop36
280
     0
102
RTVSPost2010PropOp36
 70
     1
102
RTVSPost2010Prop37
 90
       50
102
RTVSPost2010PropOp37
 70
     1
102
RTVSPost2010Prop38
140
0.0
102
RTVSPost2010PropOp38
 70
     1
102
RTVSPost2010Prop39
140
1.0
102
RTVSPost2010PropOp39
 70
     1
102
RTVSPost2010Prop40
 90
        0
102
RTVSPost2010PropOp40
 70
     1
102
RTVSPost2010Prop41ColorIndex
 90
       18
102
RTVSPost2010Prop41ColorRGB
 90
        0
102
RTVSPost2010PropOp41
 70
     1
102
RTVSPost2010Prop42
 90
       50
102
RTVSPost2010PropOp42
 70
     1
102
RTVSPost2010Prop43
 90
        3
102
RTVSPost2010PropOp43
 70
     1
102
RTVSPost2010Prop44ColorIndex
 90
        5
102
RTVSPost2010Prop44ColorRGB
 90
      255
102
RTVSPost2010PropOp44
 70
     1
102
RTVSPost2010Prop45
280
     0
102
RTVSPost2010PropOp45
 70
     1
102
RTVSPost2010Prop46
 90
       50
102
RTVSPost2010PropOp46
 70
     1
102
RTVSPost2010Prop47
 90
       50
102
RTVSPost2010PropOp47
 70
     1
102
RTVSPost2010Prop48
 90
       50
102
RTVSPost2010PropOp48
 70
     1
102
RTVSPost2010Prop49
280
     0
102
RTVSPost2010PropOp49
 70
     1
102
RTVSPost2010Prop50
 90
       50
102
RTVSPost2010PropOp50
 70
     1
102
RTVSPost2010Prop51ColorIndex
 90
      256
102
RTVSPost2010Prop51ColorRGB
 90
-16777216
102
RTVSPost2010PropOp51
 70
     0
102
RTVSPost2010Prop52
140
1.0
102
RTVSPost2010PropOp52
 70
     0
102
RTVSPost2010Prop53
 90
        2
102
RTVSPost2010PropOp53
 70
     1
102
RTVSPost2010Prop54
  1
strokes_ogs.tif
102
RTVSPost2010PropOp54
 70
     1
102
RTVSPost2010Prop55
280
     0
102
RTVSPost2010PropOp55
 70
     1
102
RTVSPost2010Prop56
140
1.0
102
RTVSPost2010PropOp56
 70
     1
102
RTVSPost2010Prop57
140
1.0
102
RTVSPost2010PropOp57
 70
     1
102
RTVSPropertyOp0
 70
     1
102
RTVSPropertyOp1
 70
     1
102
RTVSPropertyOp2
 70
     1
102
RTVSPropertyOp3
 70
     1
102
RTVSPropertyOp4
 70
     1
102
RTVSPropertyOp5
 70
     1
102
RTVSPropertyOp6
 70
     1
102
RTVSPropertyOp7
 70
     1
102
RTVSPropertyOp8
 70
     1
102
RTVSPropertyOp9
 70
     1
102
RTVSPropertyOp10
 70
     1
102
RTVSPropertyOp11
 70
     1
102
RTVSPropertyOp12
 70
     1
102
RTVSPropertyOp13
 70
     1
102
RTVSPropertyOp14
 70
     1
102
RTVSPropertyOp15
 70
     1
102
RTVSPropertyOp16
 70
     1
102
RTVSPropertyOp17
 70
     1
102
RTVSPropertyOp18
 70
     1
102
RTVSPropertyOp19
 70
     1
102
RTVSPropertyOp20
 70
     1
102
RTVSPropertyOp21
 70
     1
102
RTVSPropertyOp22
 70
     1
102
RTVSPropertyOp23
 70
     1
102
RTVSPropertyOp24
 70
     1
102
RTVSPropertyOp25
 70
     1
102
RTVSPropertyOp26
 70
     1
102
RTVSPropertyOp27
 70
     1
102
RTVSPropertyOp28
 70
     1
102
RTVSPropertyOp29
 70
     1
102
RTVSPropertyOp30
 70
     1
102
RTVSPropertyOp31
 70
     1
102
RTVSPropertyOp32
 70
     1
102
RTVSPropertyOp33
 70
     1
102
RTVSPropertyOp34
 70
     1
102
RTVSPropertyOp35
 70
     1
102
RTVSPropertyOp36
 70
     1
102
RTVSPropertyOp37
 70
     1
102
RTVSPropertyOp38
 70
     1
102
RTVSPropertyOp39
 70
     1
102
RTVSPropertyOp40
 70
     1
102
RTVSPropertyOp41
 70
     1
102
RTVSPropertyOp42
 70
     1
102
RTVSPropertyOp43
 70
     1
102
RTVSPropertyOp44
 70
     1
102
RTVSPropertyOp45
 70
     1
102
RTVSPropertyOp46
 70
     1
102
RTVSPropertyOp47
 70
     1
102
RTVSPropertyOp48
 70
     1
102
RTVSPropertyOp49
 70
     1
102
RTVSPropertyOp50
 70
     1
102
RTVSPropertyOp51
 70
     0
102
RTVSPropertyOp52
 70
     0
102
RTVSPropertyOp53
 70
     1
102
RTVSPropertyOp54
 70
     1
102
RTVSPropertyOp55
 70
     1
102
RTVSPropertyOp56
 70
     1
102
RTVSPropertyOp57
 70
     1
102
RTVSPropertyOp58
 70
     1
102
RTVSPropertyOp59
 70
     1
102
RTVSPropertyOp60
 70
     1
102
RTVSPropertyOp61
 70
     1
102
RTVSPropertyOp62
 70
     1
  0
XRECORD
  5
738
102
{ACAD_REACTORS
330
737
102
}
330
737
100
AcDbXrecord
280
     1
102
RTVSPost2010Prop28
280
     0
102
RTVSPost2010PropOp28
 70
     1
102
RTVSPost2010Prop29
280
     1
102
RTVSPost2010PropOp29
 70
     1
102
RTVSPost2010Prop30
280
     1
102
RTVSPost2010PropOp30
 70
     1
102
RTVSPost2010Prop31
280
     0
102
RTVSPost2010PropOp31
 70
     1
102
RTVSPost2010Prop32
280
     0
102
RTVSPost2010PropOp32
 70
     1
102
RTVSPost2010Prop33
280
     0
102
RTVSPost2010PropOp33
 70
     1
102
RTVSPost2010Prop34
280
     0
102
RTVSPost2010PropOp34
 70
     1
102
RTVSPost2010Prop35
280
     0
102
RTVSPost2010PropOp35
 70
     1
102
RTVSPost2010Prop36
280
     0
102
RTVSPost2010PropOp36
 70
     1
102
RTVSPost2010Prop37
 90
       50
102
RTVSPost2010PropOp37
 70
     1
102
RTVSPost2010Prop38
140
0.0
102
RTVSPost2010PropOp38
 70
     1
102
RTVSPost2010Prop39
140
1.0
102
RTVSPost2010PropOp39
 70
     1
102
RTVSPost2010Prop40
 90
        0
102
RTVSPost2010PropOp40
 70
     1
102
RTVSPost2010Prop41ColorIndex
 90
       18
102
RTVSPost2010Prop41ColorRGB
 90
        0
102
RTVSPost2010PropOp41
 70
     1
102
RTVSPost2010Prop42
 90
       50
102
RTVSPost2010PropOp42
 70
     1
102
RTVSPost2010Prop43
 90
        3
102
RTVSPost2010PropOp43
 70
     1
102
RTVSPost2010Prop44ColorIndex
 90
        5
102
RTVSPost2010Prop44ColorRGB
 90
      255
102
RTVSPost2010PropOp44
 70
     1
102
RTVSPost2010Prop45
280
     0
102
RTVSPost2010PropOp45
 70
     1
102
RTVSPost2010Prop46
 90
       50
102
RTVSPost2010PropOp46
 70
     1
102
RTVSPost2010Prop47
 90
       50
102
RTVSPost2010PropOp47
 70
     1
102
RTVSPost2010Prop48
 90
       50
102
RTVSPost2010PropOp48
 70
     1
102
RTVSPost2010Prop49
280
     0
102
RTVSPost2010PropOp49
 70
     1
102
RTVSPost2010Prop50
 90
       50
102
RTVSPost2010PropOp50
 70
     1
102
RTVSPost2010Prop51ColorIndex
 90
      256
102
RTVSPost2010Prop51ColorRGB
 90
-16777216
102
RTVSPost2010PropOp51
 70
     0
102
RTVSPost2010Prop52
140
1.0
102
RTVSPost2010PropOp52
 70
     0
102
RTVSPost2010Prop53
 90
        2
102
RTVSPost2010PropOp53
 70
     1
102
RTVSPost2010Prop54
  1
strokes_ogs.tif
102
RTVSPost2010PropOp54
 70
     1
102
RTVSPost2010Prop55
280
     0
102
RTVSPost2010PropOp55
 70
     1
102
RTVSPost2010Prop56
140
1.0
102
RTVSPost2010PropOp56
 70
     1
102
RTVSPost2010Prop57
140
1.0
102
RTVSPost2010PropOp57
 70
     1
102
RTVSPropertyOp0
 70
     1
102
RTVSPropertyOp1
 70
     1
102
RTVSPropertyOp2
 70
     1
102
RTVSPropertyOp3
 70
     1
102
RTVSPropertyOp4
 70
     1
102
RTVSPropertyOp5
 70
     1
102
RTVSPropertyOp6
 70
     1
102
RTVSPropertyOp7
 70
     1
102
RTVSPropertyOp8
 70
     1
102
RTVSPropertyOp9
 70
     1
102
RTVSPropertyOp10
 70
     1
102
RTVSPropertyOp11
 70
     1
102
RTVSPropertyOp12
 70
     1
102
RTVSPropertyOp13
 70
     1
102
RTVSPropertyOp14
 70
     1
102
RTVSPropertyOp15
 70
     1
102
RTVSPropertyOp16
 70
     1
102
RTVSPropertyOp17
 70
     1
102
RTVSPropertyOp18
 70
     1
102
RTVSPropertyOp19
 70
     1
102
RTVSPropertyOp20
 70
     1
102
RTVSPropertyOp21
 70
     1
102
RTVSPropertyOp22
 70
     1
102
RTVSPropertyOp23
 70
     1
102
RTVSPropertyOp24
 70
     1
102
RTVSPropertyOp25
 70
     1
102
RTVSPropertyOp26
 70
     1
102
RTVSPropertyOp27
 70
     1
102
RTVSPropertyOp28
 70
     1
102
RTVSPropertyOp29
 70
     1
102
RTVSPropertyOp30
 70
     1
102
RTVSPropertyOp31
 70
     1
102
RTVSPropertyOp32
 70
     1
102
RTVSPropertyOp33
 70
     1
102
RTVSPropertyOp34
 70
     1
102
RTVSPropertyOp35
 70
     1
102
RTVSPropertyOp36
 70
     1
102
RTVSPropertyOp37
 70
     1
102
RTVSPropertyOp38
 70
     1
102
RTVSPropertyOp39
 70
     1
102
RTVSPropertyOp40
 70
     1
102
RTVSPropertyOp41
 70
     1
102
RTVSPropertyOp42
 70
     1
102
RTVSPropertyOp43
 70
     1
102
RTVSPropertyOp44
 70
     1
102
RTVSPropertyOp45
 70
     1
102
RTVSPropertyOp46
 70
     1
102
RTVSPropertyOp47
 70
     1
102
RTVSPropertyOp48
 70
     1
102
RTVSPropertyOp49
 70
     1
102
RTVSPropertyOp50
 70
     1
102
RTVSPropertyOp51
 70
     0
102
RTVSPropertyOp52
 70
     0
102
RTVSPropertyOp53
 70
     1
102
RTVSPropertyOp54
 70
     1
102
RTVSPropertyOp55
 70
     1
102
RTVSPropertyOp56
 70
     1
102
RTVSPropertyOp57
 70
     1
102
RTVSPropertyOp58
 70
     1
102
RTVSPropertyOp59
 70
     1
102
RTVSPropertyOp60
 70
     1
102
RTVSPropertyOp61
 70
     1
102
RTVSPropertyOp62
 70
     1
  0
XRECORD
  5
740
102
{ACAD_REACTORS
330
73F
102
}
330
73F
100
AcDbXrecord
280
     1
102
RTVSPost2010Prop28
280
     0
102
RTVSPost2010PropOp28
 70
     1
102
RTVSPost2010Prop29
280
     1
102
RTVSPost2010PropOp29
 70
     1
102
RTVSPost2010Prop30
280
     1
102
RTVSPost2010PropOp30
 70
     1
102
RTVSPost2010Prop31
280
     0
102
RTVSPost2010PropOp31
 70
     1
102
RTVSPost2010Prop32
280
     0
102
RTVSPost2010PropOp32
 70
     1
102
RTVSPost2010Prop33
280
     0
102
RTVSPost2010PropOp33
 70
     1
102
RTVSPost2010Prop34
280
     0
102
RTVSPost2010PropOp34
 70
     1
102
RTVSPost2010Prop35
280
     0
102
RTVSPost2010PropOp35
 70
     1
102
RTVSPost2010Prop36
280
     0
102
RTVSPost2010PropOp36
 70
     1
102
RTVSPost2010Prop37
 90
       50
102
RTVSPost2010PropOp37
 70
     1
102
RTVSPost2010Prop38
140
0.0
102
RTVSPost2010PropOp38
 70
     1
102
RTVSPost2010Prop39
140
1.0
102
RTVSPost2010PropOp39
 70
     1
102
RTVSPost2010Prop40
 90
        0
102
RTVSPost2010PropOp40
 70
     1
102
RTVSPost2010Prop41ColorIndex
 90
       18
102
RTVSPost2010Prop41ColorRGB
 90
        0
102
RTVSPost2010PropOp41
 70
     1
102
RTVSPost2010Prop42
 90
       50
102
RTVSPost2010PropOp42
 70
     1
102
RTVSPost2010Prop43
 90
        3
102
RTVSPost2010PropOp43
 70
     1
102
RTVSPost2010Prop44ColorIndex
 90
        5
102
RTVSPost2010Prop44ColorRGB
 90
      255
102
RTVSPost2010PropOp44
 70
     1
102
RTVSPost2010Prop45
280
     0
102
RTVSPost2010PropOp45
 70
     1
102
RTVSPost2010Prop46
 90
       50
102
RTVSPost2010PropOp46
 70
     1
102
RTVSPost2010Prop47
 90
       50
102
RTVSPost2010PropOp47
 70
     1
102
RTVSPost2010Prop48
 90
       50
102
RTVSPost2010PropOp48
 70
     1
102
RTVSPost2010Prop49
280
     0
102
RTVSPost2010PropOp49
 70
     1
102
RTVSPost2010Prop50
 90
       50
102
RTVSPost2010PropOp50
 70
     1
102
RTVSPost2010Prop51ColorIndex
 90
      256
102
RTVSPost2010Prop51ColorRGB
 90
-16777216
102
RTVSPost2010PropOp51
 70
     0
102
RTVSPost2010Prop52
140
1.0
102
RTVSPost2010PropOp52
 70
     0
102
RTVSPost2010Prop53
 90
        2
102
RTVSPost2010PropOp53
 70
     1
102
RTVSPost2010Prop54
  1
strokes_ogs.tif
102
RTVSPost2010PropOp54
 70
     1
102
RTVSPost2010Prop55
280
     0
102
RTVSPost2010PropOp55
 70
     1
102
RTVSPost2010Prop56
140
1.0
102
RTVSPost2010PropOp56
 70
     1
102
RTVSPost2010Prop57
140
1.0
102
RTVSPost2010PropOp57
 70
     1
102
RTVSPropertyOp0
 70
     1
102
RTVSPropertyOp1
 70
     1
102
RTVSPropertyOp2
 70
     1
102
RTVSPropertyOp3
 70
     1
102
RTVSPropertyOp4
 70
     1
102
RTVSPropertyOp5
 70
     1
102
RTVSPropertyOp6
 70
     1
102
RTVSPropertyOp7
 70
     1
102
RTVSPropertyOp8
 70
     1
102
RTVSPropertyOp9
 70
     1
102
RTVSPropertyOp10
 70
     1
102
RTVSPropertyOp11
 70
     1
102
RTVSPropertyOp12
 70
     1
102
RTVSPropertyOp13
 70
     1
102
RTVSPropertyOp14
 70
     1
102
RTVSPropertyOp15
 70
     1
102
RTVSPropertyOp16
 70
     1
102
RTVSPropertyOp17
 70
     1
102
RTVSPropertyOp18
 70
     1
102
RTVSPropertyOp19
 70
     1
102
RTVSPropertyOp20
 70
     1
102
RTVSPropertyOp21
 70
     1
102
RTVSPropertyOp22
 70
     1
102
RTVSPropertyOp23
 70
     1
102
RTVSPropertyOp24
 70
     1
102
RTVSPropertyOp25
 70
     1
102
RTVSPropertyOp26
 70
     1
102
RTVSPropertyOp27
 70
     1
102
RTVSPropertyOp28
 70
     1
102
RTVSPropertyOp29
 70
     1
102
RTVSPropertyOp30
 70
     1
102
RTVSPropertyOp31
 70
     1
102
RTVSPropertyOp32
 70
     1
102
RTVSPropertyOp33
 70
     1
102
RTVSPropertyOp34
 70
     1
102
RTVSPropertyOp35
 70
     1
102
RTVSPropertyOp36
 70
     1
102
RTVSPropertyOp37
 70
     1
102
RTVSPropertyOp38
 70
     1
102
RTVSPropertyOp39
 70
     1
102
RTVSPropertyOp40
 70
     1
102
RTVSPropertyOp41
 70
     1
102
RTVSPropertyOp42
 70
     1
102
RTVSPropertyOp43
 70
     1
102
RTVSPropertyOp44
 70
     1
102
RTVSPropertyOp45
 70
     1
102
RTVSPropertyOp46
 70
     1
102
RTVSPropertyOp47
 70
     1
102
RTVSPropertyOp48
 70
     1
102
RTVSPropertyOp49
 70
     1
102
RTVSPropertyOp50
 70
     1
102
RTVSPropertyOp51
 70
     0
102
RTVSPropertyOp52
 70
     0
102
RTVSPropertyOp53
 70
     1
102
RTVSPropertyOp54
 70
     1
102
RTVSPropertyOp55
 70
     1
102
RTVSPropertyOp56
 70
     1
102
RTVSPropertyOp57
 70
     1
102
RTVSPropertyOp58
 70
     1
102
RTVSPropertyOp59
 70
     1
102
RTVSPropertyOp60
 70
     1
102
RTVSPropertyOp61
 70
     1
102
RTVSPropertyOp62
 70
     1
  0
XRECORD
  5
732
102
{ACAD_REACTORS
330
731
102
}
330
731
100
AcDbXrecord
280
     1
102
RTVSPost2010Prop28
280
     0
102
RTVSPost2010PropOp28
 70
     1
102
RTVSPost2010Prop29
280
     1
102
RTVSPost2010PropOp29
 70
     1
102
RTVSPost2010Prop30
280
     1
102
RTVSPost2010PropOp30
 70
     1
102
RTVSPost2010Prop31
280
     0
102
RTVSPost2010PropOp31
 70
     1
102
RTVSPost2010Prop32
280
     0
102
RTVSPost2010PropOp32
 70
     1
102
RTVSPost2010Prop33
280
     0
102
RTVSPost2010PropOp33
 70
     1
102
RTVSPost2010Prop34
280
     0
102
RTVSPost2010PropOp34
 70
     1
102
RTVSPost2010Prop35
280
     0
102
RTVSPost2010PropOp35
 70
     1
102
RTVSPost2010Prop36
280
     0
102
RTVSPost2010PropOp36
 70
     1
102
RTVSPost2010Prop37
 90
       50
102
RTVSPost2010PropOp37
 70
     1
102
RTVSPost2010Prop38
140
0.0
102
RTVSPost2010PropOp38
 70
     1
102
RTVSPost2010Prop39
140
1.0
102
RTVSPost2010PropOp39
 70
     1
102
RTVSPost2010Prop40
 90
        0
102
RTVSPost2010PropOp40
 70
     1
102
RTVSPost2010Prop41ColorIndex
 90
       18
102
RTVSPost2010Prop41ColorRGB
 90
        0
102
RTVSPost2010PropOp41
 70
     1
102
RTVSPost2010Prop42
 90
       50
102
RTVSPost2010PropOp42
 70
     1
102
RTVSPost2010Prop43
 90
        3
102
RTVSPost2010PropOp43
 70
     1
102
RTVSPost2010Prop44ColorIndex
 90
        5
102
RTVSPost2010Prop44ColorRGB
 90
      255
102
RTVSPost2010PropOp44
 70
     1
102
RTVSPost2010Prop45
280
     0
102
RTVSPost2010PropOp45
 70
     1
102
RTVSPost2010Prop46
 90
       50
102
RTVSPost2010PropOp46
 70
     1
102
RTVSPost2010Prop47
 90
       50
102
RTVSPost2010PropOp47
 70
     1
102
RTVSPost2010Prop48
 90
       50
102
RTVSPost2010PropOp48
 70
     1
102
RTVSPost2010Prop49
280
     0
102
RTVSPost2010PropOp49
 70
     1
102
RTVSPost2010Prop50
 90
       50
102
RTVSPost2010PropOp50
 70
     1
102
RTVSPost2010Prop51ColorIndex
 90
      256
102
RTVSPost2010Prop51ColorRGB
 90
-16777216
102
RTVSPost2010PropOp51
 70
     0
102
RTVSPost2010Prop52
140
1.0
102
RTVSPost2010PropOp52
 70
     0
102
RTVSPost2010Prop53
 90
        2
102
RTVSPost2010PropOp53
 70
     1
102
RTVSPost2010Prop54
  1
strokes_ogs.tif
102
RTVSPost2010PropOp54
 70
     1
102
RTVSPost2010Prop55
280
     0
102
RTVSPost2010PropOp55
 70
     1
102
RTVSPost2010Prop56
140
1.0
102
RTVSPost2010PropOp56
 70
     1
102
RTVSPost2010Prop57
140
1.0
102
RTVSPost2010PropOp57
 70
     1
102
RTVSPropertyOp0
 70
     1
102
RTVSPropertyOp1
 70
     1
102
RTVSPropertyOp2
 70
     1
102
RTVSPropertyOp3
 70
     1
102
RTVSPropertyOp4
 70
     1
102
RTVSPropertyOp5
 70
     1
102
RTVSPropertyOp6
 70
     1
102
RTVSPropertyOp7
 70
     1
102
RTVSPropertyOp8
 70
     1
102
RTVSPropertyOp9
 70
     1
102
RTVSPropertyOp10
 70
     1
102
RTVSPropertyOp11
 70
     1
102
RTVSPropertyOp12
 70
     1
102
RTVSPropertyOp13
 70
     1
102
RTVSPropertyOp14
 70
     1
102
RTVSPropertyOp15
 70
     1
102
RTVSPropertyOp16
 70
     1
102
RTVSPropertyOp17
 70
     1
102
RTVSPropertyOp18
 70
     1
102
RTVSPropertyOp19
 70
     1
102
RTVSPropertyOp20
 70
     1
102
RTVSPropertyOp21
 70
     1
102
RTVSPropertyOp22
 70
     1
102
RTVSPropertyOp23
 70
     1
102
RTVSPropertyOp24
 70
     1
102
RTVSPropertyOp25
 70
     1
102
RTVSPropertyOp26
 70
     1
102
RTVSPropertyOp27
 70
     1
102
RTVSPropertyOp28
 70
     1
102
RTVSPropertyOp29
 70
     1
102
RTVSPropertyOp30
 70
     1
102
RTVSPropertyOp31
 70
     1
102
RTVSPropertyOp32
 70
     1
102
RTVSPropertyOp33
 70
     1
102
RTVSPropertyOp34
 70
     1
102
RTVSPropertyOp35
 70
     1
102
RTVSPropertyOp36
 70
     1
102
RTVSPropertyOp37
 70
     1
102
RTVSPropertyOp38
 70
     1
102
RTVSPropertyOp39
 70
     1
102
RTVSPropertyOp40
 70
     1
102
RTVSPropertyOp41
 70
     1
102
RTVSPropertyOp42
 70
     1
102
RTVSPropertyOp43
 70
     1
102
RTVSPropertyOp44
 70
     1
102
RTVSPropertyOp45
 70
     1
102
RTVSPropertyOp46
 70
     1
102
RTVSPropertyOp47
 70
     1
102
RTVSPropertyOp48
 70
     1
102
RTVSPropertyOp49
 70
     1
102
RTVSPropertyOp50
 70
     1
102
RTVSPropertyOp51
 70
     0
102
RTVSPropertyOp52
 70
     0
102
RTVSPropertyOp53
 70
     1
102
RTVSPropertyOp54
 70
     1
102
RTVSPropertyOp55
 70
     1
102
RTVSPropertyOp56
 70
     1
102
RTVSPropertyOp57
 70
     1
102
RTVSPropertyOp58
 70
     1
102
RTVSPropertyOp59
 70
     1
102
RTVSPropertyOp60
 70
     1
102
RTVSPropertyOp61
 70
     1
102
RTVSPropertyOp62
 70
     1
  0
XRECORD
  5
736
102
{ACAD_REACTORS
330
735
102
}
330
735
100
AcDbXrecord
280
     1
102
RTVSPost2010Prop28
280
     0
102
RTVSPost2010PropOp28
 70
     1
102
RTVSPost2010Prop29
280
     1
102
RTVSPost2010PropOp29
 70
     1
102
RTVSPost2010Prop30
280
     1
102
RTVSPost2010PropOp30
 70
     1
102
RTVSPost2010Prop31
280
     0
102
RTVSPost2010PropOp31
 70
     1
102
RTVSPost2010Prop32
280
     0
102
RTVSPost2010PropOp32
 70
     1
102
RTVSPost2010Prop33
280
     0
102
RTVSPost2010PropOp33
 70
     1
102
RTVSPost2010Prop34
280
     0
102
RTVSPost2010PropOp34
 70
     1
102
RTVSPost2010Prop35
280
     0
102
RTVSPost2010PropOp35
 70
     1
102
RTVSPost2010Prop36
280
     0
102
RTVSPost2010PropOp36
 70
     1
102
RTVSPost2010Prop37
 90
       50
102
RTVSPost2010PropOp37
 70
     1
102
RTVSPost2010Prop38
140
0.0
102
RTVSPost2010PropOp38
 70
     1
102
RTVSPost2010Prop39
140
1.0
102
RTVSPost2010PropOp39
 70
     1
102
RTVSPost2010Prop40
 90
        0
102
RTVSPost2010PropOp40
 70
     1
102
RTVSPost2010Prop41ColorIndex
 90
       18
102
RTVSPost2010Prop41ColorRGB
 90
        0
102
RTVSPost2010PropOp41
 70
     1
102
RTVSPost2010Prop42
 90
       50
102
RTVSPost2010PropOp42
 70
     1
102
RTVSPost2010Prop43
 90
        3
102
RTVSPost2010PropOp43
 70
     1
102
RTVSPost2010Prop44ColorIndex
 90
        5
102
RTVSPost2010Prop44ColorRGB
 90
      255
102
RTVSPost2010PropOp44
 70
     1
102
RTVSPost2010Prop45
280
     0
102
RTVSPost2010PropOp45
 70
     1
102
RTVSPost2010Prop46
 90
       50
102
RTVSPost2010PropOp46
 70
     1
102
RTVSPost2010Prop47
 90
       50
102
RTVSPost2010PropOp47
 70
     1
102
RTVSPost2010Prop48
 90
       50
102
RTVSPost2010PropOp48
 70
     1
102
RTVSPost2010Prop49
280
     0
102
RTVSPost2010PropOp49
 70
     1
102
RTVSPost2010Prop50
 90
       50
102
RTVSPost2010PropOp50
 70
     1
102
RTVSPost2010Prop51ColorIndex
 90
      256
102
RTVSPost2010Prop51ColorRGB
 90
-16777216
102
RTVSPost2010PropOp51
 70
     0
102
RTVSPost2010Prop52
140
1.0
102
RTVSPost2010PropOp52
 70
     0
102
RTVSPost2010Prop53
 90
        2
102
RTVSPost2010PropOp53
 70
     1
102
RTVSPost2010Prop54
  1
strokes_ogs.tif
102
RTVSPost2010PropOp54
 70
     1
102
RTVSPost2010Prop55
280
     0
102
RTVSPost2010PropOp55
 70
     1
102
RTVSPost2010Prop56
140
1.0
102
RTVSPost2010PropOp56
 70
     1
102
RTVSPost2010Prop57
140
1.0
102
RTVSPost2010PropOp57
 70
     1
102
RTVSPropertyOp0
 70
     1
102
RTVSPropertyOp1
 70
     1
102
RTVSPropertyOp2
 70
     1
102
RTVSPropertyOp3
 70
     1
102
RTVSPropertyOp4
 70
     1
102
RTVSPropertyOp5
 70
     1
102
RTVSPropertyOp6
 70
     1
102
RTVSPropertyOp7
 70
     1
102
RTVSPropertyOp8
 70
     1
102
RTVSPropertyOp9
 70
     1
102
RTVSPropertyOp10
 70
     1
102
RTVSPropertyOp11
 70
     1
102
RTVSPropertyOp12
 70
     1
102
RTVSPropertyOp13
 70
     1
102
RTVSPropertyOp14
 70
     1
102
RTVSPropertyOp15
 70
     1
102
RTVSPropertyOp16
 70
     1
102
RTVSPropertyOp17
 70
     1
102
RTVSPropertyOp18
 70
     1
102
RTVSPropertyOp19
 70
     1
102
RTVSPropertyOp20
 70
     1
102
RTVSPropertyOp21
 70
     1
102
RTVSPropertyOp22
 70
     1
102
RTVSPropertyOp23
 70
     1
102
RTVSPropertyOp24
 70
     1
102
RTVSPropertyOp25
 70
     1
102
RTVSPropertyOp26
 70
     1
102
RTVSPropertyOp27
 70
     1
102
RTVSPropertyOp28
 70
     1
102
RTVSPropertyOp29
 70
     1
102
RTVSPropertyOp30
 70
     1
102
RTVSPropertyOp31
 70
     1
102
RTVSPropertyOp32
 70
     1
102
RTVSPropertyOp33
 70
     1
102
RTVSPropertyOp34
 70
     1
102
RTVSPropertyOp35
 70
     1
102
RTVSPropertyOp36
 70
     1
102
RTVSPropertyOp37
 70
     1
102
RTVSPropertyOp38
 70
     1
102
RTVSPropertyOp39
 70
     1
102
RTVSPropertyOp40
 70
     1
102
RTVSPropertyOp41
 70
     1
102
RTVSPropertyOp42
 70
     1
102
RTVSPropertyOp43
 70
     1
102
RTVSPropertyOp44
 70
     1
102
RTVSPropertyOp45
 70
     1
102
RTVSPropertyOp46
 70
     1
102
RTVSPropertyOp47
 70
     1
102
RTVSPropertyOp48
 70
     1
102
RTVSPropertyOp49
 70
     1
102
RTVSPropertyOp50
 70
     1
102
RTVSPropertyOp51
 70
     0
102
RTVSPropertyOp52
 70
     0
102
RTVSPropertyOp53
 70
     1
102
RTVSPropertyOp54
 70
     1
102
RTVSPropertyOp55
 70
     1
102
RTVSPropertyOp56
 70
     1
102
RTVSPropertyOp57
 70
     1
102
RTVSPropertyOp58
 70
     1
102
RTVSPropertyOp59
 70
     1
102
RTVSPropertyOp60
 70
     1
102
RTVSPropertyOp61
 70
     1
102
RTVSPropertyOp62
 70
     1
  0
XRECORD
  5
746
102
{ACAD_REACTORS
330
745
102
}
330
745
100
AcDbXrecord
280
     1
102
RTVSPost2010Prop28
280
     0
102
RTVSPost2010PropOp28
 70
     1
102
RTVSPost2010Prop29
280
     1
102
RTVSPost2010PropOp29
 70
     1
102
RTVSPost2010Prop30
280
     1
102
RTVSPost2010PropOp30
 70
     1
102
RTVSPost2010Prop31
280
     0
102
RTVSPost2010PropOp31
 70
     1
102
RTVSPost2010Prop32
280
     0
102
RTVSPost2010PropOp32
 70
     1
102
RTVSPost2010Prop33
280
     0
102
RTVSPost2010PropOp33
 70
     1
102
RTVSPost2010Prop34
280
     0
102
RTVSPost2010PropOp34
 70
     1
102
RTVSPost2010Prop35
280
     0
102
RTVSPost2010PropOp35
 70
     1
102
RTVSPost2010Prop36
280
     0
102
RTVSPost2010PropOp36
 70
     1
102
RTVSPost2010Prop37
 90
       50
102
RTVSPost2010PropOp37
 70
     1
102
RTVSPost2010Prop38
140
0.0
102
RTVSPost2010PropOp38
 70
     1
102
RTVSPost2010Prop39
140
1.0
102
RTVSPost2010PropOp39
 70
     1
102
RTVSPost2010Prop40
 90
        0
102
RTVSPost2010PropOp40
 70
     1
102
RTVSPost2010Prop41ColorIndex
 90
       18
102
RTVSPost2010Prop41ColorRGB
 90
        0
102
RTVSPost2010PropOp41
 70
     1
102
RTVSPost2010Prop42
 90
       50
102
RTVSPost2010PropOp42
 70
     1
102
RTVSPost2010Prop43
 90
        3
102
RTVSPost2010PropOp43
 70
     1
102
RTVSPost2010Prop44ColorIndex
 90
        5
102
RTVSPost2010Prop44ColorRGB
 90
      255
102
RTVSPost2010PropOp44
 70
     1
102
RTVSPost2010Prop45
280
     0
102
RTVSPost2010PropOp45
 70
     1
102
RTVSPost2010Prop46
 90
       50
102
RTVSPost2010PropOp46
 70
     1
102
RTVSPost2010Prop47
 90
       50
102
RTVSPost2010PropOp47
 70
     1
102
RTVSPost2010Prop48
 90
       50
102
RTVSPost2010PropOp48
 70
     1
102
RTVSPost2010Prop49
280
     0
102
RTVSPost2010PropOp49
 70
     1
102
RTVSPost2010Prop50
 90
       50
102
RTVSPost2010PropOp50
 70
     1
102
RTVSPost2010Prop51ColorIndex
 90
      256
102
RTVSPost2010Prop51ColorRGB
 90
-16777216
102
RTVSPost2010PropOp51
 70
     0
102
RTVSPost2010Prop52
140
1.0
102
RTVSPost2010PropOp52
 70
     0
102
RTVSPost2010Prop53
 90
        2
102
RTVSPost2010PropOp53
 70
     1
102
RTVSPost2010Prop54
  1
strokes_ogs.tif
102
RTVSPost2010PropOp54
 70
     1
102
RTVSPost2010Prop55
280
     0
102
RTVSPost2010PropOp55
 70
     1
102
RTVSPost2010Prop56
140
1.0
102
RTVSPost2010PropOp56
 70
     1
102
RTVSPost2010Prop57
140
1.0
102
RTVSPost2010PropOp57
 70
     1
102
RTVSPropertyOp0
 70
     0
102
RTVSPropertyOp1
 70
     0
102
RTVSPropertyOp2
 70
     0
102
RTVSPropertyOp3
 70
     0
102
RTVSPropertyOp4
 70
     0
102
RTVSPropertyOp5
 70
     0
102
RTVSPropertyOp6
 70
     0
102
RTVSPropertyOp7
 70
     0
102
RTVSPropertyOp8
 70
     0
102
RTVSPropertyOp9
 70
     0
102
RTVSPropertyOp10
 70
     0
102
RTVSPropertyOp11
 70
     0
102
RTVSPropertyOp12
 70
     0
102
RTVSPropertyOp13
 70
     0
102
RTVSPropertyOp14
 70
     2
102
RTVSPropertyOp15
 70
     0
102
RTVSPropertyOp16
 70
     0
102
RTVSPropertyOp17
 70
     0
102
RTVSPropertyOp18
 70
     0
102
RTVSPropertyOp19
 70
     0
102
RTVSPropertyOp20
 70
     0
102
RTVSPropertyOp21
 70
     0
102
RTVSPropertyOp22
 70
     0
102
RTVSPropertyOp23
 70
     0
102
RTVSPropertyOp24
 70
     0
102
RTVSPropertyOp25
 70
     0
102
RTVSPropertyOp26
 70
     0
102
RTVSPropertyOp27
 70
     0
102
RTVSPropertyOp28
 70
     1
102
RTVSPropertyOp29
 70
     1
102
RTVSPropertyOp30
 70
     1
102
RTVSPropertyOp31
 70
     1
102
RTVSPropertyOp32
 70
     1
102
RTVSPropertyOp33
 70
     1
102
RTVSPropertyOp34
 70
     1
102
RTVSPropertyOp35
 70
     1
102
RTVSPropertyOp36
 70
     1
102
RTVSPropertyOp37
 70
     1
102
RTVSPropertyOp38
 70
     1
102
RTVSPropertyOp39
 70
     1
102
RTVSPropertyOp40
 70
     1
102
RTVSPropertyOp41
 70
     1
102
RTVSPropertyOp42
 70
     1
102
RTVSPropertyOp43
 70
     1
102
RTVSPropertyOp44
 70
     1
102
RTVSPropertyOp45
 70
     1
102
RTVSPropertyOp46
 70
     1
102
RTVSPropertyOp47
 70
     1
102
RTVSPropertyOp48
 70
     1
102
RTVSPropertyOp49
 70
     1
102
RTVSPropertyOp50
 70
     1
102
RTVSPropertyOp51
 70
     0
102
RTVSPropertyOp52
 70
     0
102
RTVSPropertyOp53
 70
     1
102
RTVSPropertyOp54
 70
     1
102
RTVSPropertyOp55
 70
     1
102
RTVSPropertyOp56
 70
     1
102
RTVSPropertyOp57
 70
     1
102
RTVSPropertyOp58
 70
     1
102
RTVSPropertyOp59
 70
     1
102
RTVSPropertyOp60
 70
     1
102
RTVSPropertyOp61
 70
     1
102
RTVSPropertyOp62
 70
     1
  0
XRECORD
  5
73E
102
{ACAD_REACTORS
330
73D
102
}
330
73D
100
AcDbXrecord
280
     1
102
RTVSPost2010Prop28
280
     0
102
RTVSPost2010PropOp28
 70
     1
102
RTVSPost2010Prop29
280
     1
102
RTVSPost2010PropOp29
 70
     1
102
RTVSPost2010Prop30
280
     1
102
RTVSPost2010PropOp30
 70
     1
102
RTVSPost2010Prop31
280
     0
102
RTVSPost2010PropOp31
 70
     1
102
RTVSPost2010Prop32
280
     0
102
RTVSPost2010PropOp32
 70
     1
102
RTVSPost2010Prop33
280
     0
102
RTVSPost2010PropOp33
 70
     1
102
RTVSPost2010Prop34
280
     0
102
RTVSPost2010PropOp34
 70
     1
102
RTVSPost2010Prop35
280
     0
102
RTVSPost2010PropOp35
 70
     1
102
RTVSPost2010Prop36
280
     0
102
RTVSPost2010PropOp36
 70
     1
102
RTVSPost2010Prop37
 90
       50
102
RTVSPost2010PropOp37
 70
     1
102
RTVSPost2010Prop38
140
0.0
102
RTVSPost2010PropOp38
 70
     1
102
RTVSPost2010Prop39
140
1.0
102
RTVSPost2010PropOp39
 70
     1
102
RTVSPost2010Prop40
 90
        0
102
RTVSPost2010PropOp40
 70
     1
102
RTVSPost2010Prop41ColorIndex
 90
       18
102
RTVSPost2010Prop41ColorRGB
 90
        0
102
RTVSPost2010PropOp41
 70
     1
102
RTVSPost2010Prop42
 90
       50
102
RTVSPost2010PropOp42
 70
     1
102
RTVSPost2010Prop43
 90
        3
102
RTVSPost2010PropOp43
 70
     1
102
RTVSPost2010Prop44ColorIndex
 90
        5
102
RTVSPost2010Prop44ColorRGB
 90
      255
102
RTVSPost2010PropOp44
 70
     1
102
RTVSPost2010Prop45
280
     0
102
RTVSPost2010PropOp45
 70
     1
102
RTVSPost2010Prop46
 90
       50
102
RTVSPost2010PropOp46
 70
     1
102
RTVSPost2010Prop47
 90
       50
102
RTVSPost2010PropOp47
 70
     1
102
RTVSPost2010Prop48
 90
       50
102
RTVSPost2010PropOp48
 70
     1
102
RTVSPost2010Prop49
280
     0
102
RTVSPost2010PropOp49
 70
     1
102
RTVSPost2010Prop50
 90
       50
102
RTVSPost2010PropOp50
 70
     1
102
RTVSPost2010Prop51ColorIndex
 90
      256
102
RTVSPost2010Prop51ColorRGB
 90
-16777216
102
RTVSPost2010PropOp51
 70
     0
102
RTVSPost2010Prop52
140
1.0
102
RTVSPost2010PropOp52
 70
     0
102
RTVSPost2010Prop53
 90
        2
102
RTVSPost2010PropOp53
 70
     1
102
RTVSPost2010Prop54
  1
strokes_ogs.tif
102
RTVSPost2010PropOp54
 70
     1
102
RTVSPost2010Prop55
280
     0
102
RTVSPost2010PropOp55
 70
     1
102
RTVSPost2010Prop56
140
1.0
102
RTVSPost2010PropOp56
 70
     1
102
RTVSPost2010Prop57
140
1.0
102
RTVSPost2010PropOp57
 70
     1
102
RTVSPropertyOp0
 70
     1
102
RTVSPropertyOp1
 70
     1
102
RTVSPropertyOp2
 70
     1
102
RTVSPropertyOp3
 70
     1
102
RTVSPropertyOp4
 70
     1
102
RTVSPropertyOp5
 70
     1
102
RTVSPropertyOp6
 70
     1
102
RTVSPropertyOp7
 70
     1
102
RTVSPropertyOp8
 70
     1
102
RTVSPropertyOp9
 70
     1
102
RTVSPropertyOp10
 70
     1
102
RTVSPropertyOp11
 70
     1
102
RTVSPropertyOp12
 70
     1
102
RTVSPropertyOp13
 70
     1
102
RTVSPropertyOp14
 70
     1
102
RTVSPropertyOp15
 70
     1
102
RTVSPropertyOp16
 70
     1
102
RTVSPropertyOp17
 70
     1
102
RTVSPropertyOp18
 70
     1
102
RTVSPropertyOp19
 70
     1
102
RTVSPropertyOp20
 70
     1
102
RTVSPropertyOp21
 70
     1
102
RTVSPropertyOp22
 70
     1
102
RTVSPropertyOp23
 70
     1
102
RTVSPropertyOp24
 70
     1
102
RTVSPropertyOp25
 70
     1
102
RTVSPropertyOp26
 70
     1
102
RTVSPropertyOp27
 70
     1
102
RTVSPropertyOp28
 70
     1
102
RTVSPropertyOp29
 70
     1
102
RTVSPropertyOp30
 70
     1
102
RTVSPropertyOp31
 70
     1
102
RTVSPropertyOp32
 70
     1
102
RTVSPropertyOp33
 70
     1
102
RTVSPropertyOp34
 70
     1
102
RTVSPropertyOp35
 70
     1
102
RTVSPropertyOp36
 70
     1
102
RTVSPropertyOp37
 70
     1
102
RTVSPropertyOp38
 70
     1
102
RTVSPropertyOp39
 70
     1
102
RTVSPropertyOp40
 70
     1
102
RTVSPropertyOp41
 70
     1
102
RTVSPropertyOp42
 70
     1
102
RTVSPropertyOp43
 70
     1
102
RTVSPropertyOp44
 70
     1
102
RTVSPropertyOp45
 70
     1
102
RTVSPropertyOp46
 70
     1
102
RTVSPropertyOp47
 70
     1
102
RTVSPropertyOp48
 70
     1
102
RTVSPropertyOp49
 70
     1
102
RTVSPropertyOp50
 70
     1
102
RTVSPropertyOp51
 70
     0
102
RTVSPropertyOp52
 70
     0
102
RTVSPropertyOp53
 70
     1
102
RTVSPropertyOp54
 70
     1
102
RTVSPropertyOp55
 70
     1
102
RTVSPropertyOp56
 70
     1
102
RTVSPropertyOp57
 70
     1
102
RTVSPropertyOp58
 70
     1
102
RTVSPropertyOp59
 70
     1
102
RTVSPropertyOp60
 70
     1
102
RTVSPropertyOp61
 70
     1
102
RTVSPropertyOp62
 70
     1
  0
XRECORD
  5
722
102
{ACAD_REACTORS
330
721
102
}
330
721
100
AcDbXrecord
280
     1
102
RTVSPost2010Prop28
280
     0
102
RTVSPost2010PropOp28
 70
     1
102
RTVSPost2010Prop29
280
     1
102
RTVSPost2010PropOp29
 70
     1
102
RTVSPost2010Prop30
280
     1
102
RTVSPost2010PropOp30
 70
     1
102
RTVSPost2010Prop31
280
     0
102
RTVSPost2010PropOp31
 70
     1
102
RTVSPost2010Prop32
280
     0
102
RTVSPost2010PropOp32
 70
     1
102
RTVSPost2010Prop33
280
     0
102
RTVSPost2010PropOp33
 70
     1
102
RTVSPost2010Prop34
280
     0
102
RTVSPost2010PropOp34
 70
     1
102
RTVSPost2010Prop35
280
     0
102
RTVSPost2010PropOp35
 70
     1
102
RTVSPost2010Prop36
280
     0
102
RTVSPost2010PropOp36
 70
     1
102
RTVSPost2010Prop37
 90
       50
102
RTVSPost2010PropOp37
 70
     1
102
RTVSPost2010Prop38
140
0.0
102
RTVSPost2010PropOp38
 70
     1
102
RTVSPost2010Prop39
140
1.0
102
RTVSPost2010PropOp39
 70
     1
102
RTVSPost2010Prop40
 90
        0
102
RTVSPost2010PropOp40
 70
     1
102
RTVSPost2010Prop41ColorIndex
 90
       18
102
RTVSPost2010Prop41ColorRGB
 90
        0
102
RTVSPost2010PropOp41
 70
     1
102
RTVSPost2010Prop42
 90
       50
102
RTVSPost2010PropOp42
 70
     1
102
RTVSPost2010Prop43
 90
        3
102
RTVSPost2010PropOp43
 70
     1
102
RTVSPost2010Prop44ColorIndex
 90
        5
102
RTVSPost2010Prop44ColorRGB
 90
      255
102
RTVSPost2010PropOp44
 70
     1
102
RTVSPost2010Prop45
280
     0
102
RTVSPost2010PropOp45
 70
     1
102
RTVSPost2010Prop46
 90
       50
102
RTVSPost2010PropOp46
 70
     1
102
RTVSPost2010Prop47
 90
       50
102
RTVSPost2010PropOp47
 70
     1
102
RTVSPost2010Prop48
 90
       50
102
RTVSPost2010PropOp48
 70
     1
102
RTVSPost2010Prop49
280
     0
102
RTVSPost2010PropOp49
 70
     1
102
RTVSPost2010Prop50
 90
       50
102
RTVSPost2010PropOp50
 70
     1
102
RTVSPost2010Prop51ColorIndex
 90
      256
102
RTVSPost2010Prop51ColorRGB
 90
-16777216
102
RTVSPost2010PropOp51
 70
     0
102
RTVSPost2010Prop52
140
1.0
102
RTVSPost2010PropOp52
 70
     0
102
RTVSPost2010Prop53
 90
        2
102
RTVSPost2010PropOp53
 70
     1
102
RTVSPost2010Prop54
  1
strokes_ogs.tif
102
RTVSPost2010PropOp54
 70
     1
102
RTVSPost2010Prop55
280
     0
102
RTVSPost2010PropOp55
 70
     1
102
RTVSPost2010Prop56
140
1.0
102
RTVSPost2010PropOp56
 70
     1
102
RTVSPost2010Prop57
140
1.0
102
RTVSPost2010PropOp57
 70
     1
102
RTVSPropertyOp0
 70
     1
102
RTVSPropertyOp1
 70
     1
102
RTVSPropertyOp2
 70
     1
102
RTVSPropertyOp3
 70
     1
102
RTVSPropertyOp4
 70
     1
102
RTVSPropertyOp5
 70
     1
102
RTVSPropertyOp6
 70
     1
102
RTVSPropertyOp7
 70
     1
102
RTVSPropertyOp8
 70
     1
102
RTVSPropertyOp9
 70
     1
102
RTVSPropertyOp10
 70
     1
102
RTVSPropertyOp11
 70
     1
102
RTVSPropertyOp12
 70
     1
102
RTVSPropertyOp13
 70
     1
102
RTVSPropertyOp14
 70
     1
102
RTVSPropertyOp15
 70
     1
102
RTVSPropertyOp16
 70
     1
102
RTVSPropertyOp17
 70
     1
102
RTVSPropertyOp18
 70
     1
102
RTVSPropertyOp19
 70
     1
102
RTVSPropertyOp20
 70
     1
102
RTVSPropertyOp21
 70
     1
102
RTVSPropertyOp22
 70
     1
102
RTVSPropertyOp23
 70
     1
102
RTVSPropertyOp24
 70
     1
102
RTVSPropertyOp25
 70
     1
102
RTVSPropertyOp26
 70
     1
102
RTVSPropertyOp27
 70
     1
102
RTVSPropertyOp28
 70
     1
102
RTVSPropertyOp29
 70
     1
102
RTVSPropertyOp30
 70
     1
102
RTVSPropertyOp31
 70
     1
102
RTVSPropertyOp32
 70
     1
102
RTVSPropertyOp33
 70
     1
102
RTVSPropertyOp34
 70
     1
102
RTVSPropertyOp35
 70
     1
102
RTVSPropertyOp36
 70
     1
102
RTVSPropertyOp37
 70
     1
102
RTVSPropertyOp38
 70
     1
102
RTVSPropertyOp39
 70
     1
102
RTVSPropertyOp40
 70
     1
102
RTVSPropertyOp41
 70
     1
102
RTVSPropertyOp42
 70
     1
102
RTVSPropertyOp43
 70
     1
102
RTVSPropertyOp44
 70
     1
102
RTVSPropertyOp45
 70
     1
102
RTVSPropertyOp46
 70
     1
102
RTVSPropertyOp47
 70
     1
102
RTVSPropertyOp48
 70
     1
102
RTVSPropertyOp49
 70
     1
102
RTVSPropertyOp50
 70
     1
102
RTVSPropertyOp51
 70
     0
102
RTVSPropertyOp52
 70
     0
102
RTVSPropertyOp53
 70
     1
102
RTVSPropertyOp54
 70
     1
102
RTVSPropertyOp55
 70
     1
102
RTVSPropertyOp56
 70
     1
102
RTVSPropertyOp57
 70
     1
102
RTVSPropertyOp58
 70
     1
102
RTVSPropertyOp59
 70
     1
102
RTVSPropertyOp60
 70
     1
102
RTVSPropertyOp61
 70
     1
102
RTVSPropertyOp62
 70
     1
  0
XRECORD
  5
724
102
{ACAD_REACTORS
330
723
102
}
330
723
100
AcDbXrecord
280
     1
102
RTVSPost2010Prop28
280
     0
102
RTVSPost2010PropOp28
 70
     1
102
RTVSPost2010Prop29
280
     1
102
RTVSPost2010PropOp29
 70
     1
102
RTVSPost2010Prop30
280
     1
102
RTVSPost2010PropOp30
 70
     1
102
RTVSPost2010Prop31
280
     0
102
RTVSPost2010PropOp31
 70
     1
102
RTVSPost2010Prop32
280
     0
102
RTVSPost2010PropOp32
 70
     1
102
RTVSPost2010Prop33
280
     0
102
RTVSPost2010PropOp33
 70
     1
102
RTVSPost2010Prop34
280
     0
102
RTVSPost2010PropOp34
 70
     1
102
RTVSPost2010Prop35
280
     0
102
RTVSPost2010PropOp35
 70
     1
102
RTVSPost2010Prop36
280
     0
102
RTVSPost2010PropOp36
 70
     1
102
RTVSPost2010Prop37
 90
       50
102
RTVSPost2010PropOp37
 70
     1
102
RTVSPost2010Prop38
140
0.0
102
RTVSPost2010PropOp38
 70
     1
102
RTVSPost2010Prop39
140
1.0
102
RTVSPost2010PropOp39
 70
     1
102
RTVSPost2010Prop40
 90
        0
102
RTVSPost2010PropOp40
 70
     1
102
RTVSPost2010Prop41ColorIndex
 90
       18
102
RTVSPost2010Prop41ColorRGB
 90
        0
102
RTVSPost2010PropOp41
 70
     1
102
RTVSPost2010Prop42
 90
       50
102
RTVSPost2010PropOp42
 70
     1
102
RTVSPost2010Prop43
 90
        3
102
RTVSPost2010PropOp43
 70
     1
102
RTVSPost2010Prop44ColorIndex
 90
        5
102
RTVSPost2010Prop44ColorRGB
 90
      255
102
RTVSPost2010PropOp44
 70
     1
102
RTVSPost2010Prop45
280
     0
102
RTVSPost2010PropOp45
 70
     1
102
RTVSPost2010Prop46
 90
       50
102
RTVSPost2010PropOp46
 70
     1
102
RTVSPost2010Prop47
 90
       50
102
RTVSPost2010PropOp47
 70
     1
102
RTVSPost2010Prop48
 90
       50
102
RTVSPost2010PropOp48
 70
     1
102
RTVSPost2010Prop49
280
     0
102
RTVSPost2010PropOp49
 70
     1
102
RTVSPost2010Prop50
 90
       50
102
RTVSPost2010PropOp50
 70
     1
102
RTVSPost2010Prop51ColorIndex
 90
      256
102
RTVSPost2010Prop51ColorRGB
 90
-16777216
102
RTVSPost2010PropOp51
 70
     0
102
RTVSPost2010Prop52
140
1.0
102
RTVSPost2010PropOp52
 70
     0
102
RTVSPost2010Prop53
 90
        2
102
RTVSPost2010PropOp53
 70
     1
102
RTVSPost2010Prop54
  1
strokes_ogs.tif
102
RTVSPost2010PropOp54
 70
     1
102
RTVSPost2010Prop55
280
     0
102
RTVSPost2010PropOp55
 70
     1
102
RTVSPost2010Prop56
140
1.0
102
RTVSPost2010PropOp56
 70
     1
102
RTVSPost2010Prop57
140
1.0
102
RTVSPost2010PropOp57
 70
     1
102
RTVSPropertyOp0
 70
     1
102
RTVSPropertyOp1
 70
     1
102
RTVSPropertyOp2
 70
     1
102
RTVSPropertyOp3
 70
     1
102
RTVSPropertyOp4
 70
     1
102
RTVSPropertyOp5
 70
     1
102
RTVSPropertyOp6
 70
     1
102
RTVSPropertyOp7
 70
     1
102
RTVSPropertyOp8
 70
     1
102
RTVSPropertyOp9
 70
     1
102
RTVSPropertyOp10
 70
     1
102
RTVSPropertyOp11
 70
     1
102
RTVSPropertyOp12
 70
     1
102
RTVSPropertyOp13
 70
     1
102
RTVSPropertyOp14
 70
     1
102
RTVSPropertyOp15
 70
     1
102
RTVSPropertyOp16
 70
     1
102
RTVSPropertyOp17
 70
     1
102
RTVSPropertyOp18
 70
     1
102
RTVSPropertyOp19
 70
     1
102
RTVSPropertyOp20
 70
     1
102
RTVSPropertyOp21
 70
     1
102
RTVSPropertyOp22
 70
     1
102
RTVSPropertyOp23
 70
     1
102
RTVSPropertyOp24
 70
     1
102
RTVSPropertyOp25
 70
     1
102
RTVSPropertyOp26
 70
     1
102
RTVSPropertyOp27
 70
     1
102
RTVSPropertyOp28
 70
     1
102
RTVSPropertyOp29
 70
     1
102
RTVSPropertyOp30
 70
     1
102
RTVSPropertyOp31
 70
     1
102
RTVSPropertyOp32
 70
     1
102
RTVSPropertyOp33
 70
     1
102
RTVSPropertyOp34
 70
     1
102
RTVSPropertyOp35
 70
     1
102
RTVSPropertyOp36
 70
     1
102
RTVSPropertyOp37
 70
     1
102
RTVSPropertyOp38
 70
     1
102
RTVSPropertyOp39
 70
     1
102
RTVSPropertyOp40
 70
     1
102
RTVSPropertyOp41
 70
     1
102
RTVSPropertyOp42
 70
     1
102
RTVSPropertyOp43
 70
     1
102
RTVSPropertyOp44
 70
     1
102
RTVSPropertyOp45
 70
     1
102
RTVSPropertyOp46
 70
     1
102
RTVSPropertyOp47
 70
     1
102
RTVSPropertyOp48
 70
     1
102
RTVSPropertyOp49
 70
     1
102
RTVSPropertyOp50
 70
     1
102
RTVSPropertyOp51
 70
     0
102
RTVSPropertyOp52
 70
     0
102
RTVSPropertyOp53
 70
     1
102
RTVSPropertyOp54
 70
     1
102
RTVSPropertyOp55
 70
     1
102
RTVSPropertyOp56
 70
     1
102
RTVSPropertyOp57
 70
     1
102
RTVSPropertyOp58
 70
     1
102
RTVSPropertyOp59
 70
     1
102
RTVSPropertyOp60
 70
     1
102
RTVSPropertyOp61
 70
     1
102
RTVSPropertyOp62
 70
     1
  0
XRECORD
  5
726
102
{ACAD_REACTORS
330
725
102
}
330
725
100
AcDbXrecord
280
     1
102
RTVSPost2010Prop28
280
     0
102
RTVSPost2010PropOp28
 70
     1
102
RTVSPost2010Prop29
280
     1
102
RTVSPost2010PropOp29
 70
     1
102
RTVSPost2010Prop30
280
     1
102
RTVSPost2010PropOp30
 70
     1
102
RTVSPost2010Prop31
280
     0
102
RTVSPost2010PropOp31
 70
     1
102
RTVSPost2010Prop32
280
     0
102
RTVSPost2010PropOp32
 70
     1
102
RTVSPost2010Prop33
280
     0
102
RTVSPost2010PropOp33
 70
     1
102
RTVSPost2010Prop34
280
     0
102
RTVSPost2010PropOp34
 70
     1
102
RTVSPost2010Prop35
280
     0
102
RTVSPost2010PropOp35
 70
     1
102
RTVSPost2010Prop36
280
     0
102
RTVSPost2010PropOp36
 70
     1
102
RTVSPost2010Prop37
 90
       50
102
RTVSPost2010PropOp37
 70
     1
102
RTVSPost2010Prop38
140
0.0
102
RTVSPost2010PropOp38
 70
     1
102
RTVSPost2010Prop39
140
1.0
102
RTVSPost2010PropOp39
 70
     1
102
RTVSPost2010Prop40
 90
        0
102
RTVSPost2010PropOp40
 70
     1
102
RTVSPost2010Prop41ColorIndex
 90
       18
102
RTVSPost2010Prop41ColorRGB
 90
        0
102
RTVSPost2010PropOp41
 70
     1
102
RTVSPost2010Prop42
 90
       50
102
RTVSPost2010PropOp42
 70
     1
102
RTVSPost2010Prop43
 90
        3
102
RTVSPost2010PropOp43
 70
     1
102
RTVSPost2010Prop44ColorIndex
 90
        5
102
RTVSPost2010Prop44ColorRGB
 90
      255
102
RTVSPost2010PropOp44
 70
     1
102
RTVSPost2010Prop45
280
     0
102
RTVSPost2010PropOp45
 70
     1
102
RTVSPost2010Prop46
 90
       50
102
RTVSPost2010PropOp46
 70
     1
102
RTVSPost2010Prop47
 90
       50
102
RTVSPost2010PropOp47
 70
     1
102
RTVSPost2010Prop48
 90
       50
102
RTVSPost2010PropOp48
 70
     1
102
RTVSPost2010Prop49
280
     0
102
RTVSPost2010PropOp49
 70
     1
102
RTVSPost2010Prop50
 90
       50
102
RTVSPost2010PropOp50
 70
     1
102
RTVSPost2010Prop51ColorIndex
 90
      256
102
RTVSPost2010Prop51ColorRGB
 90
-16777216
102
RTVSPost2010PropOp51
 70
     0
102
RTVSPost2010Prop52
140
1.0
102
RTVSPost2010PropOp52
 70
     0
102
RTVSPost2010Prop53
 90
        2
102
RTVSPost2010PropOp53
 70
     1
102
RTVSPost2010Prop54
  1
strokes_ogs.tif
102
RTVSPost2010PropOp54
 70
     1
102
RTVSPost2010Prop55
280
     0
102
RTVSPost2010PropOp55
 70
     1
102
RTVSPost2010Prop56
140
1.0
102
RTVSPost2010PropOp56
 70
     1
102
RTVSPost2010Prop57
140
1.0
102
RTVSPost2010PropOp57
 70
     1
102
RTVSPropertyOp0
 70
     1
102
RTVSPropertyOp1
 70
     1
102
RTVSPropertyOp2
 70
     1
102
RTVSPropertyOp3
 70
     1
102
RTVSPropertyOp4
 70
     1
102
RTVSPropertyOp5
 70
     1
102
RTVSPropertyOp6
 70
     1
102
RTVSPropertyOp7
 70
     1
102
RTVSPropertyOp8
 70
     1
102
RTVSPropertyOp9
 70
     1
102
RTVSPropertyOp10
 70
     1
102
RTVSPropertyOp11
 70
     1
102
RTVSPropertyOp12
 70
     1
102
RTVSPropertyOp13
 70
     1
102
RTVSPropertyOp14
 70
     1
102
RTVSPropertyOp15
 70
     1
102
RTVSPropertyOp16
 70
     1
102
RTVSPropertyOp17
 70
     1
102
RTVSPropertyOp18
 70
     1
102
RTVSPropertyOp19
 70
     1
102
RTVSPropertyOp20
 70
     1
102
RTVSPropertyOp21
 70
     1
102
RTVSPropertyOp22
 70
     1
102
RTVSPropertyOp23
 70
     1
102
RTVSPropertyOp24
 70
     1
102
RTVSPropertyOp25
 70
     1
102
RTVSPropertyOp26
 70
     1
102
RTVSPropertyOp27
 70
     1
102
RTVSPropertyOp28
 70
     1
102
RTVSPropertyOp29
 70
     1
102
RTVSPropertyOp30
 70
     1
102
RTVSPropertyOp31
 70
     1
102
RTVSPropertyOp32
 70
     1
102
RTVSPropertyOp33
 70
     1
102
RTVSPropertyOp34
 70
     1
102
RTVSPropertyOp35
 70
     1
102
RTVSPropertyOp36
 70
     1
102
RTVSPropertyOp37
 70
     1
102
RTVSPropertyOp38
 70
     1
102
RTVSPropertyOp39
 70
     1
102
RTVSPropertyOp40
 70
     1
102
RTVSPropertyOp41
 70
     1
102
RTVSPropertyOp42
 70
     1
102
RTVSPropertyOp43
 70
     1
102
RTVSPropertyOp44
 70
     1
102
RTVSPropertyOp45
 70
     1
102
RTVSPropertyOp46
 70
     1
102
RTVSPropertyOp47
 70
     1
102
RTVSPropertyOp48
 70
     1
102
RTVSPropertyOp49
 70
     1
102
RTVSPropertyOp50
 70
     1
102
RTVSPropertyOp51
 70
     0
102
RTVSPropertyOp52
 70
     0
102
RTVSPropertyOp53
 70
     1
102
RTVSPropertyOp54
 70
     1
102
RTVSPropertyOp55
 70
     1
102
RTVSPropertyOp56
 70
     1
102
RTVSPropertyOp57
 70
     1
102
RTVSPropertyOp58
 70
     1
102
RTVSPropertyOp59
 70
     1
102
RTVSPropertyOp60
 70
     1
102
RTVSPropertyOp61
 70
     1
102
RTVSPropertyOp62
 70
     1
  0
XRECORD
  5
728
102
{ACAD_REACTORS
330
727
102
}
330
727
100
AcDbXrecord
280
     1
102
RTVSPost2010Prop28
280
     0
102
RTVSPost2010PropOp28
 70
     1
102
RTVSPost2010Prop29
280
     1
102
RTVSPost2010PropOp29
 70
     1
102
RTVSPost2010Prop30
280
     1
102
RTVSPost2010PropOp30
 70
     1
102
RTVSPost2010Prop31
280
     0
102
RTVSPost2010PropOp31
 70
     1
102
RTVSPost2010Prop32
280
     0
102
RTVSPost2010PropOp32
 70
     1
102
RTVSPost2010Prop33
280
     0
102
RTVSPost2010PropOp33
 70
     1
102
RTVSPost2010Prop34
280
     0
102
RTVSPost2010PropOp34
 70
     1
102
RTVSPost2010Prop35
280
     0
102
RTVSPost2010PropOp35
 70
     1
102
RTVSPost2010Prop36
280
     0
102
RTVSPost2010PropOp36
 70
     1
102
RTVSPost2010Prop37
 90
       50
102
RTVSPost2010PropOp37
 70
     1
102
RTVSPost2010Prop38
140
0.0
102
RTVSPost2010PropOp38
 70
     1
102
RTVSPost2010Prop39
140
1.0
102
RTVSPost2010PropOp39
 70
     1
102
RTVSPost2010Prop40
 90
        0
102
RTVSPost2010PropOp40
 70
     1
102
RTVSPost2010Prop41ColorIndex
 90
       18
102
RTVSPost2010Prop41ColorRGB
 90
        0
102
RTVSPost2010PropOp41
 70
     1
102
RTVSPost2010Prop42
 90
       50
102
RTVSPost2010PropOp42
 70
     1
102
RTVSPost2010Prop43
 90
        3
102
RTVSPost2010PropOp43
 70
     1
102
RTVSPost2010Prop44ColorIndex
 90
        5
102
RTVSPost2010Prop44ColorRGB
 90
      255
102
RTVSPost2010PropOp44
 70
     1
102
RTVSPost2010Prop45
280
     0
102
RTVSPost2010PropOp45
 70
     1
102
RTVSPost2010Prop46
 90
       50
102
RTVSPost2010PropOp46
 70
     1
102
RTVSPost2010Prop47
 90
       50
102
RTVSPost2010PropOp47
 70
     1
102
RTVSPost2010Prop48
 90
       50
102
RTVSPost2010PropOp48
 70
     1
102
RTVSPost2010Prop49
280
     0
102
RTVSPost2010PropOp49
 70
     1
102
RTVSPost2010Prop50
 90
       50
102
RTVSPost2010PropOp50
 70
     1
102
RTVSPost2010Prop51ColorIndex
 90
      256
102
RTVSPost2010Prop51ColorRGB
 90
-16777216
102
RTVSPost2010PropOp51
 70
     0
102
RTVSPost2010Prop52
140
1.0
102
RTVSPost2010PropOp52
 70
     0
102
RTVSPost2010Prop53
 90
        2
102
RTVSPost2010PropOp53
 70
     1
102
RTVSPost2010Prop54
  1
strokes_ogs.tif
102
RTVSPost2010PropOp54
 70
     1
102
RTVSPost2010Prop55
280
     0
102
RTVSPost2010PropOp55
 70
     1
102
RTVSPost2010Prop56
140
1.0
102
RTVSPost2010PropOp56
 70
     1
102
RTVSPost2010Prop57
140
1.0
102
RTVSPost2010PropOp57
 70
     1
102
RTVSPropertyOp0
 70
     1
102
RTVSPropertyOp1
 70
     1
102
RTVSPropertyOp2
 70
     1
102
RTVSPropertyOp3
 70
     1
102
RTVSPropertyOp4
 70
     1
102
RTVSPropertyOp5
 70
     1
102
RTVSPropertyOp6
 70
     1
102
RTVSPropertyOp7
 70
     1
102
RTVSPropertyOp8
 70
     1
102
RTVSPropertyOp9
 70
     1
102
RTVSPropertyOp10
 70
     1
102
RTVSPropertyOp11
 70
     1
102
RTVSPropertyOp12
 70
     1
102
RTVSPropertyOp13
 70
     1
102
RTVSPropertyOp14
 70
     1
102
RTVSPropertyOp15
 70
     1
102
RTVSPropertyOp16
 70
     1
102
RTVSPropertyOp17
 70
     1
102
RTVSPropertyOp18
 70
     1
102
RTVSPropertyOp19
 70
     1
102
RTVSPropertyOp20
 70
     1
102
RTVSPropertyOp21
 70
     1
102
RTVSPropertyOp22
 70
     1
102
RTVSPropertyOp23
 70
     1
102
RTVSPropertyOp24
 70
     1
102
RTVSPropertyOp25
 70
     1
102
RTVSPropertyOp26
 70
     1
102
RTVSPropertyOp27
 70
     1
102
RTVSPropertyOp28
 70
     1
102
RTVSPropertyOp29
 70
     1
102
RTVSPropertyOp30
 70
     1
102
RTVSPropertyOp31
 70
     1
102
RTVSPropertyOp32
 70
     1
102
RTVSPropertyOp33
 70
     1
102
RTVSPropertyOp34
 70
     1
102
RTVSPropertyOp35
 70
     1
102
RTVSPropertyOp36
 70
     1
102
RTVSPropertyOp37
 70
     1
102
RTVSPropertyOp38
 70
     1
102
RTVSPropertyOp39
 70
     1
102
RTVSPropertyOp40
 70
     1
102
RTVSPropertyOp41
 70
     1
102
RTVSPropertyOp42
 70
     1
102
RTVSPropertyOp43
 70
     1
102
RTVSPropertyOp44
 70
     1
102
RTVSPropertyOp45
 70
     1
102
RTVSPropertyOp46
 70
     1
102
RTVSPropertyOp47
 70
     1
102
RTVSPropertyOp48
 70
     1
102
RTVSPropertyOp49
 70
     1
102
RTVSPropertyOp50
 70
     1
102
RTVSPropertyOp51
 70
     0
102
RTVSPropertyOp52
 70
     0
102
RTVSPropertyOp53
 70
     1
102
RTVSPropertyOp54
 70
     1
102
RTVSPropertyOp55
 70
     1
102
RTVSPropertyOp56
 70
     1
102
RTVSPropertyOp57
 70
     1
102
RTVSPropertyOp58
 70
     1
102
RTVSPropertyOp59
 70
     1
102
RTVSPropertyOp60
 70
     1
102
RTVSPropertyOp61
 70
     1
102
RTVSPropertyOp62
 70
     1
  0
XRECORD
  5
730
102
{ACAD_REACTORS
330
72F
102
}
330
72F
100
AcDbXrecord
280
     1
102
RTVSPost2010Prop28
280
     0
102
RTVSPost2010PropOp28
 70
     1
102
RTVSPost2010Prop29
280
     1
102
RTVSPost2010PropOp29
 70
     1
102
RTVSPost2010Prop30
280
     1
102
RTVSPost2010PropOp30
 70
     1
102
RTVSPost2010Prop31
280
     0
102
RTVSPost2010PropOp31
 70
     1
102
RTVSPost2010Prop32
280
     0
102
RTVSPost2010PropOp32
 70
     1
102
RTVSPost2010Prop33
280
     0
102
RTVSPost2010PropOp33
 70
     1
102
RTVSPost2010Prop34
280
     0
102
RTVSPost2010PropOp34
 70
     1
102
RTVSPost2010Prop35
280
     0
102
RTVSPost2010PropOp35
 70
     1
102
RTVSPost2010Prop36
280
     0
102
RTVSPost2010PropOp36
 70
     1
102
RTVSPost2010Prop37
 90
       50
102
RTVSPost2010PropOp37
 70
     1
102
RTVSPost2010Prop38
140
0.0
102
RTVSPost2010PropOp38
 70
     1
102
RTVSPost2010Prop39
140
1.0
102
RTVSPost2010PropOp39
 70
     1
102
RTVSPost2010Prop40
 90
        0
102
RTVSPost2010PropOp40
 70
     1
102
RTVSPost2010Prop41ColorIndex
 90
       18
102
RTVSPost2010Prop41ColorRGB
 90
        0
102
RTVSPost2010PropOp41
 70
     1
102
RTVSPost2010Prop42
 90
       50
102
RTVSPost2010PropOp42
 70
     1
102
RTVSPost2010Prop43
 90
        3
102
RTVSPost2010PropOp43
 70
     1
102
RTVSPost2010Prop44ColorIndex
 90
        5
102
RTVSPost2010Prop44ColorRGB
 90
      255
102
RTVSPost2010PropOp44
 70
     1
102
RTVSPost2010Prop45
280
     0
102
RTVSPost2010PropOp45
 70
     1
102
RTVSPost2010Prop46
 90
       50
102
RTVSPost2010PropOp46
 70
     1
102
RTVSPost2010Prop47
 90
       50
102
RTVSPost2010PropOp47
 70
     1
102
RTVSPost2010Prop48
 90
       50
102
RTVSPost2010PropOp48
 70
     1
102
RTVSPost2010Prop49
280
     0
102
RTVSPost2010PropOp49
 70
     1
102
RTVSPost2010Prop50
 90
       50
102
RTVSPost2010PropOp50
 70
     1
102
RTVSPost2010Prop51ColorIndex
 90
      256
102
RTVSPost2010Prop51ColorRGB
 90
-16777216
102
RTVSPost2010PropOp51
 70
     0
102
RTVSPost2010Prop52
140
1.0
102
RTVSPost2010PropOp52
 70
     0
102
RTVSPost2010Prop53
 90
        2
102
RTVSPost2010PropOp53
 70
     1
102
RTVSPost2010Prop54
  1
strokes_ogs.tif
102
RTVSPost2010PropOp54
 70
     1
102
RTVSPost2010Prop55
280
     0
102
RTVSPost2010PropOp55
 70
     1
102
RTVSPost2010Prop56
140
1.0
102
RTVSPost2010PropOp56
 70
     1
102
RTVSPost2010Prop57
140
1.0
102
RTVSPost2010PropOp57
 70
     1
102
RTVSPropertyOp0
 70
     1
102
RTVSPropertyOp1
 70
     1
102
RTVSPropertyOp2
 70
     1
102
RTVSPropertyOp3
 70
     1
102
RTVSPropertyOp4
 70
     1
102
RTVSPropertyOp5
 70
     1
102
RTVSPropertyOp6
 70
     1
102
RTVSPropertyOp7
 70
     1
102
RTVSPropertyOp8
 70
     1
102
RTVSPropertyOp9
 70
     1
102
RTVSPropertyOp10
 70
     1
102
RTVSPropertyOp11
 70
     1
102
RTVSPropertyOp12
 70
     1
102
RTVSPropertyOp13
 70
     1
102
RTVSPropertyOp14
 70
     1
102
RTVSPropertyOp15
 70
     1
102
RTVSPropertyOp16
 70
     1
102
RTVSPropertyOp17
 70
     1
102
RTVSPropertyOp18
 70
     1
102
RTVSPropertyOp19
 70
     1
102
RTVSPropertyOp20
 70
     1
102
RTVSPropertyOp21
 70
     1
102
RTVSPropertyOp22
 70
     1
102
RTVSPropertyOp23
 70
     1
102
RTVSPropertyOp24
 70
     1
102
RTVSPropertyOp25
 70
     1
102
RTVSPropertyOp26
 70
     1
102
RTVSPropertyOp27
 70
     1
102
RTVSPropertyOp28
 70
     1
102
RTVSPropertyOp29
 70
     1
102
RTVSPropertyOp30
 70
     1
102
RTVSPropertyOp31
 70
     1
102
RTVSPropertyOp32
 70
     1
102
RTVSPropertyOp33
 70
     1
102
RTVSPropertyOp34
 70
     1
102
RTVSPropertyOp35
 70
     1
102
RTVSPropertyOp36
 70
     1
102
RTVSPropertyOp37
 70
     1
102
RTVSPropertyOp38
 70
     1
102
RTVSPropertyOp39
 70
     1
102
RTVSPropertyOp40
 70
     1
102
RTVSPropertyOp41
 70
     1
102
RTVSPropertyOp42
 70
     1
102
RTVSPropertyOp43
 70
     1
102
RTVSPropertyOp44
 70
     1
102
RTVSPropertyOp45
 70
     1
102
RTVSPropertyOp46
 70
     1
102
RTVSPropertyOp47
 70
     1
102
RTVSPropertyOp48
 70
     1
102
RTVSPropertyOp49
 70
     1
102
RTVSPropertyOp50
 70
     1
102
RTVSPropertyOp51
 70
     0
102
RTVSPropertyOp52
 70
     0
102
RTVSPropertyOp53
 70
     1
102
RTVSPropertyOp54
 70
     1
102
RTVSPropertyOp55
 70
     1
102
RTVSPropertyOp56
 70
     1
102
RTVSPropertyOp57
 70
     1
102
RTVSPropertyOp58
 70
     1
102
RTVSPropertyOp59
 70
     1
102
RTVSPropertyOp60
 70
     1
102
RTVSPropertyOp61
 70
     1
102
RTVSPropertyOp62
 70
     1
  0
XRECORD
  5
742
102
{ACAD_REACTORS
330
741
102
}
330
741
100
AcDbXrecord
280
     1
102
RTVSPost2010Prop28
280
     0
102
RTVSPost2010PropOp28
 70
     1
102
RTVSPost2010Prop29
280
     1
102
RTVSPost2010PropOp29
 70
     1
102
RTVSPost2010Prop30
280
     1
102
RTVSPost2010PropOp30
 70
     1
102
RTVSPost2010Prop31
280
     0
102
RTVSPost2010PropOp31
 70
     1
102
RTVSPost2010Prop32
280
     0
102
RTVSPost2010PropOp32
 70
     1
102
RTVSPost2010Prop33
280
     0
102
RTVSPost2010PropOp33
 70
     1
102
RTVSPost2010Prop34
280
     0
102
RTVSPost2010PropOp34
 70
     1
102
RTVSPost2010Prop35
280
     0
102
RTVSPost2010PropOp35
 70
     1
102
RTVSPost2010Prop36
280
     0
102
RTVSPost2010PropOp36
 70
     1
102
RTVSPost2010Prop37
 90
       50
102
RTVSPost2010PropOp37
 70
     1
102
RTVSPost2010Prop38
140
0.0
102
RTVSPost2010PropOp38
 70
     1
102
RTVSPost2010Prop39
140
1.0
102
RTVSPost2010PropOp39
 70
     1
102
RTVSPost2010Prop40
 90
        0
102
RTVSPost2010PropOp40
 70
     1
102
RTVSPost2010Prop41ColorIndex
 90
       18
102
RTVSPost2010Prop41ColorRGB
 90
        0
102
RTVSPost2010PropOp41
 70
     1
102
RTVSPost2010Prop42
 90
       50
102
RTVSPost2010PropOp42
 70
     1
102
RTVSPost2010Prop43
 90
        3
102
RTVSPost2010PropOp43
 70
     1
102
RTVSPost2010Prop44ColorIndex
 90
        5
102
RTVSPost2010Prop44ColorRGB
 90
      255
102
RTVSPost2010PropOp44
 70
     1
102
RTVSPost2010Prop45
280
     0
102
RTVSPost2010PropOp45
 70
     1
102
RTVSPost2010Prop46
 90
       50
102
RTVSPost2010PropOp46
 70
     1
102
RTVSPost2010Prop47
 90
       50
102
RTVSPost2010PropOp47
 70
     1
102
RTVSPost2010Prop48
 90
       50
102
RTVSPost2010PropOp48
 70
     1
102
RTVSPost2010Prop49
280
     0
102
RTVSPost2010PropOp49
 70
     1
102
RTVSPost2010Prop50
 90
       50
102
RTVSPost2010PropOp50
 70
     1
102
RTVSPost2010Prop51ColorIndex
 90
      256
102
RTVSPost2010Prop51ColorRGB
 90
-16777216
102
RTVSPost2010PropOp51
 70
     0
102
RTVSPost2010Prop52
140
1.0
102
RTVSPost2010PropOp52
 70
     0
102
RTVSPost2010Prop53
 90
        2
102
RTVSPost2010PropOp53
 70
     1
102
RTVSPost2010Prop54
  1
strokes_ogs.tif
102
RTVSPost2010PropOp54
 70
     1
102
RTVSPost2010Prop55
280
     0
102
RTVSPost2010PropOp55
 70
     1
102
RTVSPost2010Prop56
140
1.0
102
RTVSPost2010PropOp56
 70
     1
102
RTVSPost2010Prop57
140
1.0
102
RTVSPost2010PropOp57
 70
     1
102
RTVSPropertyOp0
 70
     0
102
RTVSPropertyOp1
 70
     0
102
RTVSPropertyOp2
 70
     0
102
RTVSPropertyOp3
 70
     0
102
RTVSPropertyOp4
 70
     0
102
RTVSPropertyOp5
 70
     0
102
RTVSPropertyOp6
 70
     0
102
RTVSPropertyOp7
 70
     0
102
RTVSPropertyOp8
 70
     0
102
RTVSPropertyOp9
 70
     0
102
RTVSPropertyOp10
 70
     0
102
RTVSPropertyOp11
 70
     0
102
RTVSPropertyOp12
 70
     0
102
RTVSPropertyOp13
 70
     0
102
RTVSPropertyOp14
 70
     2
102
RTVSPropertyOp15
 70
     0
102
RTVSPropertyOp16
 70
     0
102
RTVSPropertyOp17
 70
     0
102
RTVSPropertyOp18
 70
     0
102
RTVSPropertyOp19
 70
     0
102
RTVSPropertyOp20
 70
     0
102
RTVSPropertyOp21
 70
     0
102
RTVSPropertyOp22
 70
     0
102
RTVSPropertyOp23
 70
     0
102
RTVSPropertyOp24
 70
     0
102
RTVSPropertyOp25
 70
     0
102
RTVSPropertyOp26
 70
     0
102
RTVSPropertyOp27
 70
     0
102
RTVSPropertyOp28
 70
     1
102
RTVSPropertyOp29
 70
     1
102
RTVSPropertyOp30
 70
     1
102
RTVSPropertyOp31
 70
     1
102
RTVSPropertyOp32
 70
     1
102
RTVSPropertyOp33
 70
     1
102
RTVSPropertyOp34
 70
     1
102
RTVSPropertyOp35
 70
     1
102
RTVSPropertyOp36
 70
     1
102
RTVSPropertyOp37
 70
     1
102
RTVSPropertyOp38
 70
     1
102
RTVSPropertyOp39
 70
     1
102
RTVSPropertyOp40
 70
     1
102
RTVSPropertyOp41
 70
     1
102
RTVSPropertyOp42
 70
     1
102
RTVSPropertyOp43
 70
     1
102
RTVSPropertyOp44
 70
     1
102
RTVSPropertyOp45
 70
     1
102
RTVSPropertyOp46
 70
     1
102
RTVSPropertyOp47
 70
     1
102
RTVSPropertyOp48
 70
     1
102
RTVSPropertyOp49
 70
     1
102
RTVSPropertyOp50
 70
     1
102
RTVSPropertyOp51
 70
     0
102
RTVSPropertyOp52
 70
     0
102
RTVSPropertyOp53
 70
     1
102
RTVSPropertyOp54
 70
     1
102
RTVSPropertyOp55
 70
     1
102
RTVSPropertyOp56
 70
     1
102
RTVSPropertyOp57
 70
     1
102
RTVSPropertyOp58
 70
     1
102
RTVSPropertyOp59
 70
     1
102
RTVSPropertyOp60
 70
     1
102
RTVSPropertyOp61
 70
     1
102
RTVSPropertyOp62
 70
     1
  0
XRECORD
  5
73C
102
{ACAD_REACTORS
330
73B
102
}
330
73B
100
AcDbXrecord
280
     1
102
RTVSPost2010Prop28
280
     0
102
RTVSPost2010PropOp28
 70
     1
102
RTVSPost2010Prop29
280
     1
102
RTVSPost2010PropOp29
 70
     1
102
RTVSPost2010Prop30
280
     1
102
RTVSPost2010PropOp30
 70
     1
102
RTVSPost2010Prop31
280
     0
102
RTVSPost2010PropOp31
 70
     1
102
RTVSPost2010Prop32
280
     0
102
RTVSPost2010PropOp32
 70
     1
102
RTVSPost2010Prop33
280
     0
102
RTVSPost2010PropOp33
 70
     1
102
RTVSPost2010Prop34
280
     0
102
RTVSPost2010PropOp34
 70
     1
102
RTVSPost2010Prop35
280
     0
102
RTVSPost2010PropOp35
 70
     1
102
RTVSPost2010Prop36
280
     0
102
RTVSPost2010PropOp36
 70
     1
102
RTVSPost2010Prop37
 90
       50
102
RTVSPost2010PropOp37
 70
     1
102
RTVSPost2010Prop38
140
0.0
102
RTVSPost2010PropOp38
 70
     1
102
RTVSPost2010Prop39
140
1.0
102
RTVSPost2010PropOp39
 70
     1
102
RTVSPost2010Prop40
 90
        0
102
RTVSPost2010PropOp40
 70
     1
102
RTVSPost2010Prop41ColorIndex
 90
       18
102
RTVSPost2010Prop41ColorRGB
 90
        0
102
RTVSPost2010PropOp41
 70
     1
102
RTVSPost2010Prop42
 90
       50
102
RTVSPost2010PropOp42
 70
     1
102
RTVSPost2010Prop43
 90
        3
102
RTVSPost2010PropOp43
 70
     1
102
RTVSPost2010Prop44ColorIndex
 90
        5
102
RTVSPost2010Prop44ColorRGB
 90
      255
102
RTVSPost2010PropOp44
 70
     1
102
RTVSPost2010Prop45
280
     0
102
RTVSPost2010PropOp45
 70
     1
102
RTVSPost2010Prop46
 90
       50
102
RTVSPost2010PropOp46
 70
     1
102
RTVSPost2010Prop47
 90
       50
102
RTVSPost2010PropOp47
 70
     1
102
RTVSPost2010Prop48
 90
       50
102
RTVSPost2010PropOp48
 70
     1
102
RTVSPost2010Prop49
280
     0
102
RTVSPost2010PropOp49
 70
     1
102
RTVSPost2010Prop50
 90
       50
102
RTVSPost2010PropOp50
 70
     1
102
RTVSPost2010Prop51ColorIndex
 90
      256
102
RTVSPost2010Prop51ColorRGB
 90
-16777216
102
RTVSPost2010PropOp51
 70
     0
102
RTVSPost2010Prop52
140
1.0
102
RTVSPost2010PropOp52
 70
     0
102
RTVSPost2010Prop53
 90
        2
102
RTVSPost2010PropOp53
 70
     1
102
RTVSPost2010Prop54
  1
strokes_ogs.tif
102
RTVSPost2010PropOp54
 70
     1
102
RTVSPost2010Prop55
280
     0
102
RTVSPost2010PropOp55
 70
     1
102
RTVSPost2010Prop56
140
1.0
102
RTVSPost2010PropOp56
 70
     1
102
RTVSPost2010Prop57
140
1.0
102
RTVSPost2010PropOp57
 70
     1
102
RTVSPropertyOp0
 70
     1
102
RTVSPropertyOp1
 70
     1
102
RTVSPropertyOp2
 70
     1
102
RTVSPropertyOp3
 70
     1
102
RTVSPropertyOp4
 70
     1
102
RTVSPropertyOp5
 70
     1
102
RTVSPropertyOp6
 70
     1
102
RTVSPropertyOp7
 70
     1
102
RTVSPropertyOp8
 70
     1
102
RTVSPropertyOp9
 70
     1
102
RTVSPropertyOp10
 70
     1
102
RTVSPropertyOp11
 70
     1
102
RTVSPropertyOp12
 70
     1
102
RTVSPropertyOp13
 70
     1
102
RTVSPropertyOp14
 70
     1
102
RTVSPropertyOp15
 70
     1
102
RTVSPropertyOp16
 70
     1
102
RTVSPropertyOp17
 70
     1
102
RTVSPropertyOp18
 70
     1
102
RTVSPropertyOp19
 70
     1
102
RTVSPropertyOp20
 70
     1
102
RTVSPropertyOp21
 70
     1
102
RTVSPropertyOp22
 70
     1
102
RTVSPropertyOp23
 70
     1
102
RTVSPropertyOp24
 70
     1
102
RTVSPropertyOp25
 70
     1
102
RTVSPropertyOp26
 70
     1
102
RTVSPropertyOp27
 70
     1
102
RTVSPropertyOp28
 70
     1
102
RTVSPropertyOp29
 70
     1
102
RTVSPropertyOp30
 70
     1
102
RTVSPropertyOp31
 70
     1
102
RTVSPropertyOp32
 70
     1
102
RTVSPropertyOp33
 70
     1
102
RTVSPropertyOp34
 70
     1
102
RTVSPropertyOp35
 70
     1
102
RTVSPropertyOp36
 70
     1
102
RTVSPropertyOp37
 70
     1
102
RTVSPropertyOp38
 70
     1
102
RTVSPropertyOp39
 70
     1
102
RTVSPropertyOp40
 70
     1
102
RTVSPropertyOp41
 70
     1
102
RTVSPropertyOp42
 70
     1
102
RTVSPropertyOp43
 70
     1
102
RTVSPropertyOp44
 70
     1
102
RTVSPropertyOp45
 70
     1
102
RTVSPropertyOp46
 70
     1
102
RTVSPropertyOp47
 70
     1
102
RTVSPropertyOp48
 70
     1
102
RTVSPropertyOp49
 70
     1
102
RTVSPropertyOp50
 70
     1
102
RTVSPropertyOp51
 70
     0
102
RTVSPropertyOp52
 70
     0
102
RTVSPropertyOp53
 70
     1
102
RTVSPropertyOp54
 70
     1
102
RTVSPropertyOp55
 70
     1
102
RTVSPropertyOp56
 70
     1
102
RTVSPropertyOp57
 70
     1
102
RTVSPropertyOp58
 70
     1
102
RTVSPropertyOp59
 70
     1
102
RTVSPropertyOp60
 70
     1
102
RTVSPropertyOp61
 70
     1
102
RTVSPropertyOp62
 70
     1
  0
XRECORD
  5
744
102
{ACAD_REACTORS
330
743
102
}
330
743
100
AcDbXrecord
280
     1
102
RTVSPost2010Prop28
280
     0
102
RTVSPost2010PropOp28
 70
     1
102
RTVSPost2010Prop29
280
     1
102
RTVSPost2010PropOp29
 70
     1
102
RTVSPost2010Prop30
280
     1
102
RTVSPost2010PropOp30
 70
     1
102
RTVSPost2010Prop31
280
     0
102
RTVSPost2010PropOp31
 70
     1
102
RTVSPost2010Prop32
280
     0
102
RTVSPost2010PropOp32
 70
     1
102
RTVSPost2010Prop33
280
     0
102
RTVSPost2010PropOp33
 70
     1
102
RTVSPost2010Prop34
280
     0
102
RTVSPost2010PropOp34
 70
     1
102
RTVSPost2010Prop35
280
     0
102
RTVSPost2010PropOp35
 70
     1
102
RTVSPost2010Prop36
280
     0
102
RTVSPost2010PropOp36
 70
     1
102
RTVSPost2010Prop37
 90
       50
102
RTVSPost2010PropOp37
 70
     1
102
RTVSPost2010Prop38
140
0.0
102
RTVSPost2010PropOp38
 70
     1
102
RTVSPost2010Prop39
140
1.0
102
RTVSPost2010PropOp39
 70
     1
102
RTVSPost2010Prop40
 90
        0
102
RTVSPost2010PropOp40
 70
     1
102
RTVSPost2010Prop41ColorIndex
 90
       18
102
RTVSPost2010Prop41ColorRGB
 90
        0
102
RTVSPost2010PropOp41
 70
     1
102
RTVSPost2010Prop42
 90
       50
102
RTVSPost2010PropOp42
 70
     1
102
RTVSPost2010Prop43
 90
        3
102
RTVSPost2010PropOp43
 70
     1
102
RTVSPost2010Prop44ColorIndex
 90
        5
102
RTVSPost2010Prop44ColorRGB
 90
      255
102
RTVSPost2010PropOp44
 70
     1
102
RTVSPost2010Prop45
280
     0
102
RTVSPost2010PropOp45
 70
     1
102
RTVSPost2010Prop46
 90
       50
102
RTVSPost2010PropOp46
 70
     1
102
RTVSPost2010Prop47
 90
       50
102
RTVSPost2010PropOp47
 70
     1
102
RTVSPost2010Prop48
 90
       50
102
RTVSPost2010PropOp48
 70
     1
102
RTVSPost2010Prop49
280
     0
102
RTVSPost2010PropOp49
 70
     1
102
RTVSPost2010Prop50
 90
       50
102
RTVSPost2010PropOp50
 70
     1
102
RTVSPost2010Prop51ColorIndex
 90
      256
102
RTVSPost2010Prop51ColorRGB
 90
-16777216
102
RTVSPost2010PropOp51
 70
     0
102
RTVSPost2010Prop52
140
1.0
102
RTVSPost2010PropOp52
 70
     0
102
RTVSPost2010Prop53
 90
        2
102
RTVSPost2010PropOp53
 70
     1
102
RTVSPost2010Prop54
  1
strokes_ogs.tif
102
RTVSPost2010PropOp54
 70
     1
102
RTVSPost2010Prop55
280
     0
102
RTVSPost2010PropOp55
 70
     1
102
RTVSPost2010Prop56
140
1.0
102
RTVSPost2010PropOp56
 70
     1
102
RTVSPost2010Prop57
140
1.0
102
RTVSPost2010PropOp57
 70
     1
102
RTVSPropertyOp0
 70
     0
102
RTVSPropertyOp1
 70
     0
102
RTVSPropertyOp2
 70
     0
102
RTVSPropertyOp3
 70
     0
102
RTVSPropertyOp4
 70
     0
102
RTVSPropertyOp5
 70
     0
102
RTVSPropertyOp6
 70
     0
102
RTVSPropertyOp7
 70
     0
102
RTVSPropertyOp8
 70
     0
102
RTVSPropertyOp9
 70
     0
102
RTVSPropertyOp10
 70
     0
102
RTVSPropertyOp11
 70
     0
102
RTVSPropertyOp12
 70
     0
102
RTVSPropertyOp13
 70
     0
102
RTVSPropertyOp14
 70
     2
102
RTVSPropertyOp15
 70
     0
102
RTVSPropertyOp16
 70
     0
102
RTVSPropertyOp17
 70
     0
102
RTVSPropertyOp18
 70
     0
102
RTVSPropertyOp19
 70
     0
102
RTVSPropertyOp20
 70
     0
102
RTVSPropertyOp21
 70
     0
102
RTVSPropertyOp22
 70
     0
102
RTVSPropertyOp23
 70
     0
102
RTVSPropertyOp24
 70
     0
102
RTVSPropertyOp25
 70
     0
102
RTVSPropertyOp26
 70
     0
102
RTVSPropertyOp27
 70
     0
102
RTVSPropertyOp28
 70
     1
102
RTVSPropertyOp29
 70
     1
102
RTVSPropertyOp30
 70
     1
102
RTVSPropertyOp31
 70
     1
102
RTVSPropertyOp32
 70
     1
102
RTVSPropertyOp33
 70
     1
102
RTVSPropertyOp34
 70
     1
102
RTVSPropertyOp35
 70
     1
102
RTVSPropertyOp36
 70
     1
102
RTVSPropertyOp37
 70
     1
102
RTVSPropertyOp38
 70
     1
102
RTVSPropertyOp39
 70
     1
102
RTVSPropertyOp40
 70
     1
102
RTVSPropertyOp41
 70
     1
102
RTVSPropertyOp42
 70
     1
102
RTVSPropertyOp43
 70
     1
102
RTVSPropertyOp44
 70
     1
102
RTVSPropertyOp45
 70
     1
102
RTVSPropertyOp46
 70
     1
102
RTVSPropertyOp47
 70
     1
102
RTVSPropertyOp48
 70
     1
102
RTVSPropertyOp49
 70
     1
102
RTVSPropertyOp50
 70
     1
102
RTVSPropertyOp51
 70
     0
102
RTVSPropertyOp52
 70
     0
102
RTVSPropertyOp53
 70
     1
102
RTVSPropertyOp54
 70
     1
102
RTVSPropertyOp55
 70
     1
102
RTVSPropertyOp56
 70
     1
102
RTVSPropertyOp57
 70
     1
102
RTVSPropertyOp58
 70
     1
102
RTVSPropertyOp59
 70
     1
102
RTVSPropertyOp60
 70
     1
102
RTVSPropertyOp61
 70
     1
102
RTVSPropertyOp62
 70
     1
  0
XRECORD
  5
734
102
{ACAD_REACTORS
330
733
102
}
330
733
100
AcDbXrecord
280
     1
102
RTVSPost2010Prop28
280
     0
102
RTVSPost2010PropOp28
 70
     1
102
RTVSPost2010Prop29
280
     1
102
RTVSPost2010PropOp29
 70
     1
102
RTVSPost2010Prop30
280
     1
102
RTVSPost2010PropOp30
 70
     1
102
RTVSPost2010Prop31
280
     0
102
RTVSPost2010PropOp31
 70
     1
102
RTVSPost2010Prop32
280
     0
102
RTVSPost2010PropOp32
 70
     1
102
RTVSPost2010Prop33
280
     0
102
RTVSPost2010PropOp33
 70
     1
102
RTVSPost2010Prop34
280
     0
102
RTVSPost2010PropOp34
 70
     1
102
RTVSPost2010Prop35
280
     0
102
RTVSPost2010PropOp35
 70
     1
102
RTVSPost2010Prop36
280
     0
102
RTVSPost2010PropOp36
 70
     1
102
RTVSPost2010Prop37
 90
       50
102
RTVSPost2010PropOp37
 70
     1
102
RTVSPost2010Prop38
140
0.0
102
RTVSPost2010PropOp38
 70
     1
102
RTVSPost2010Prop39
140
1.0
102
RTVSPost2010PropOp39
 70
     1
102
RTVSPost2010Prop40
 90
        0
102
RTVSPost2010PropOp40
 70
     1
102
RTVSPost2010Prop41ColorIndex
 90
       18
102
RTVSPost2010Prop41ColorRGB
 90
        0
102
RTVSPost2010PropOp41
 70
     1
102
RTVSPost2010Prop42
 90
       50
102
RTVSPost2010PropOp42
 70
     1
102
RTVSPost2010Prop43
 90
        3
102
RTVSPost2010PropOp43
 70
     1
102
RTVSPost2010Prop44ColorIndex
 90
        5
102
RTVSPost2010Prop44ColorRGB
 90
      255
102
RTVSPost2010PropOp44
 70
     1
102
RTVSPost2010Prop45
280
     0
102
RTVSPost2010PropOp45
 70
     1
102
RTVSPost2010Prop46
 90
       50
102
RTVSPost2010PropOp46
 70
     1
102
RTVSPost2010Prop47
 90
       50
102
RTVSPost2010PropOp47
 70
     1
102
RTVSPost2010Prop48
 90
       50
102
RTVSPost2010PropOp48
 70
     1
102
RTVSPost2010Prop49
280
     0
102
RTVSPost2010PropOp49
 70
     1
102
RTVSPost2010Prop50
 90
       50
102
RTVSPost2010PropOp50
 70
     1
102
RTVSPost2010Prop51ColorIndex
 90
      256
102
RTVSPost2010Prop51ColorRGB
 90
-16777216
102
RTVSPost2010PropOp51
 70
     0
102
RTVSPost2010Prop52
140
1.0
102
RTVSPost2010PropOp52
 70
     0
102
RTVSPost2010Prop53
 90
        2
102
RTVSPost2010PropOp53
 70
     1
102
RTVSPost2010Prop54
  1
strokes_ogs.tif
102
RTVSPost2010PropOp54
 70
     1
102
RTVSPost2010Prop55
280
     0
102
RTVSPost2010PropOp55
 70
     1
102
RTVSPost2010Prop56
140
1.0
102
RTVSPost2010PropOp56
 70
     1
102
RTVSPost2010Prop57
140
1.0
102
RTVSPost2010PropOp57
 70
     1
102
RTVSPropertyOp0
 70
     1
102
RTVSPropertyOp1
 70
     1
102
RTVSPropertyOp2
 70
     1
102
RTVSPropertyOp3
 70
     1
102
RTVSPropertyOp4
 70
     1
102
RTVSPropertyOp5
 70
     1
102
RTVSPropertyOp6
 70
     1
102
RTVSPropertyOp7
 70
     1
102
RTVSPropertyOp8
 70
     1
102
RTVSPropertyOp9
 70
     1
102
RTVSPropertyOp10
 70
     1
102
RTVSPropertyOp11
 70
     1
102
RTVSPropertyOp12
 70
     1
102
RTVSPropertyOp13
 70
     1
102
RTVSPropertyOp14
 70
     1
102
RTVSPropertyOp15
 70
     1
102
RTVSPropertyOp16
 70
     1
102
RTVSPropertyOp17
 70
     1
102
RTVSPropertyOp18
 70
     1
102
RTVSPropertyOp19
 70
     1
102
RTVSPropertyOp20
 70
     1
102
RTVSPropertyOp21
 70
     1
102
RTVSPropertyOp22
 70
     1
102
RTVSPropertyOp23
 70
     1
102
RTVSPropertyOp24
 70
     1
102
RTVSPropertyOp25
 70
     1
102
RTVSPropertyOp26
 70
     1
102
RTVSPropertyOp27
 70
     1
102
RTVSPropertyOp28
 70
     1
102
RTVSPropertyOp29
 70
     1
102
RTVSPropertyOp30
 70
     1
102
RTVSPropertyOp31
 70
     1
102
RTVSPropertyOp32
 70
     1
102
RTVSPropertyOp33
 70
     1
102
RTVSPropertyOp34
 70
     1
102
RTVSPropertyOp35
 70
     1
102
RTVSPropertyOp36
 70
     1
102
RTVSPropertyOp37
 70
     1
102
RTVSPropertyOp38
 70
     1
102
RTVSPropertyOp39
 70
     1
102
RTVSPropertyOp40
 70
     1
102
RTVSPropertyOp41
 70
     1
102
RTVSPropertyOp42
 70
     1
102
RTVSPropertyOp43
 70
     1
102
RTVSPropertyOp44
 70
     1
102
RTVSPropertyOp45
 70
     1
102
RTVSPropertyOp46
 70
     1
102
RTVSPropertyOp47
 70
     1
102
RTVSPropertyOp48
 70
     1
102
RTVSPropertyOp49
 70
     1
102
RTVSPropertyOp50
 70
     1
102
RTVSPropertyOp51
 70
     0
102
RTVSPropertyOp52
 70
     0
102
RTVSPropertyOp53
 70
     1
102
RTVSPropertyOp54
 70
     1
102
RTVSPropertyOp55
 70
     1
102
RTVSPropertyOp56
 70
     1
102
RTVSPropertyOp57
 70
     1
102
RTVSPropertyOp58
 70
     1
102
RTVSPropertyOp59
 70
     1
102
RTVSPropertyOp60
 70
     1
102
RTVSPropertyOp61
 70
     1
102
RTVSPropertyOp62
 70
     1
  0
XRECORD
  5
750
102
{ACAD_REACTORS
330
74F
102
}
330
74F
100
AcDbXrecord
280
     1
102
RTVSPost2010Prop28
280
     0
102
RTVSPost2010PropOp28
 70
     1
102
RTVSPost2010Prop29
280
     1
102
RTVSPost2010PropOp29
 70
     1
102
RTVSPost2010Prop30
280
     1
102
RTVSPost2010PropOp30
 70
     1
102
RTVSPost2010Prop31
280
     0
102
RTVSPost2010PropOp31
 70
     1
102
RTVSPost2010Prop32
280
     0
102
RTVSPost2010PropOp32
 70
     1
102
RTVSPost2010Prop33
280
     0
102
RTVSPost2010PropOp33
 70
     1
102
RTVSPost2010Prop34
280
     0
102
RTVSPost2010PropOp34
 70
     1
102
RTVSPost2010Prop35
280
     0
102
RTVSPost2010PropOp35
 70
     1
102
RTVSPost2010Prop36
280
     0
102
RTVSPost2010PropOp36
 70
     1
102
RTVSPost2010Prop37
 90
       50
102
RTVSPost2010PropOp37
 70
     1
102
RTVSPost2010Prop38
140
0.0
102
RTVSPost2010PropOp38
 70
     1
102
RTVSPost2010Prop39
140
1.0
102
RTVSPost2010PropOp39
 70
     1
102
RTVSPost2010Prop40
 90
        0
102
RTVSPost2010PropOp40
 70
     1
102
RTVSPost2010Prop41ColorIndex
 90
       18
102
RTVSPost2010Prop41ColorRGB
 90
        0
102
RTVSPost2010PropOp41
 70
     1
102
RTVSPost2010Prop42
 90
       50
102
RTVSPost2010PropOp42
 70
     1
102
RTVSPost2010Prop43
 90
        3
102
RTVSPost2010PropOp43
 70
     1
102
RTVSPost2010Prop44ColorIndex
 90
        5
102
RTVSPost2010Prop44ColorRGB
 90
      255
102
RTVSPost2010PropOp44
 70
     1
102
RTVSPost2010Prop45
280
     0
102
RTVSPost2010PropOp45
 70
     1
102
RTVSPost2010Prop46
 90
       50
102
RTVSPost2010PropOp46
 70
     1
102
RTVSPost2010Prop47
 90
       50
102
RTVSPost2010PropOp47
 70
     1
102
RTVSPost2010Prop48
 90
       50
102
RTVSPost2010PropOp48
 70
     1
102
RTVSPost2010Prop49
280
     0
102
RTVSPost2010PropOp49
 70
     1
102
RTVSPost2010Prop50
 90
       50
102
RTVSPost2010PropOp50
 70
     1
102
RTVSPost2010Prop51ColorIndex
 90
      256
102
RTVSPost2010Prop51ColorRGB
 90
-16777216
102
RTVSPost2010PropOp51
 70
     0
102
RTVSPost2010Prop52
140
1.0
102
RTVSPost2010PropOp52
 70
     0
102
RTVSPost2010Prop53
 90
        2
102
RTVSPost2010PropOp53
 70
     1
102
RTVSPost2010Prop54
  1
strokes_ogs.tif
102
RTVSPost2010PropOp54
 70
     1
102
RTVSPost2010Prop55
280
     0
102
RTVSPost2010PropOp55
 70
     1
102
RTVSPost2010Prop56
140
1.0
102
RTVSPost2010PropOp56
 70
     1
102
RTVSPost2010Prop57
140
1.0
102
RTVSPost2010PropOp57
 70
     1
102
RTVSPropertyOp0
 70
     1
102
RTVSPropertyOp1
 70
     1
102
RTVSPropertyOp2
 70
     1
102
RTVSPropertyOp3
 70
     1
102
RTVSPropertyOp4
 70
     1
102
RTVSPropertyOp5
 70
     1
102
RTVSPropertyOp6
 70
     1
102
RTVSPropertyOp7
 70
     1
102
RTVSPropertyOp8
 70
     1
102
RTVSPropertyOp9
 70
     1
102
RTVSPropertyOp10
 70
     1
102
RTVSPropertyOp11
 70
     1
102
RTVSPropertyOp12
 70
     1
102
RTVSPropertyOp13
 70
     1
102
RTVSPropertyOp14
 70
     1
102
RTVSPropertyOp15
 70
     1
102
RTVSPropertyOp16
 70
     1
102
RTVSPropertyOp17
 70
     1
102
RTVSPropertyOp18
 70
     1
102
RTVSPropertyOp19
 70
     1
102
RTVSPropertyOp20
 70
     1
102
RTVSPropertyOp21
 70
     1
102
RTVSPropertyOp22
 70
     1
102
RTVSPropertyOp23
 70
     1
102
RTVSPropertyOp24
 70
     1
102
RTVSPropertyOp25
 70
     1
102
RTVSPropertyOp26
 70
     1
102
RTVSPropertyOp27
 70
     1
102
RTVSPropertyOp28
 70
     1
102
RTVSPropertyOp29
 70
     1
102
RTVSPropertyOp30
 70
     1
102
RTVSPropertyOp31
 70
     1
102
RTVSPropertyOp32
 70
     1
102
RTVSPropertyOp33
 70
     1
102
RTVSPropertyOp34
 70
     1
102
RTVSPropertyOp35
 70
     1
102
RTVSPropertyOp36
 70
     1
102
RTVSPropertyOp37
 70
     1
102
RTVSPropertyOp38
 70
     1
102
RTVSPropertyOp39
 70
     1
102
RTVSPropertyOp40
 70
     1
102
RTVSPropertyOp41
 70
     1
102
RTVSPropertyOp42
 70
     1
102
RTVSPropertyOp43
 70
     1
102
RTVSPropertyOp44
 70
     1
102
RTVSPropertyOp45
 70
     1
102
RTVSPropertyOp46
 70
     1
102
RTVSPropertyOp47
 70
     1
102
RTVSPropertyOp48
 70
     1
102
RTVSPropertyOp49
 70
     1
102
RTVSPropertyOp50
 70
     1
102
RTVSPropertyOp51
 70
     0
102
RTVSPropertyOp52
 70
     0
102
RTVSPropertyOp53
 70
     1
102
RTVSPropertyOp54
 70
     1
102
RTVSPropertyOp55
 70
     1
102
RTVSPropertyOp56
 70
     1
102
RTVSPropertyOp57
 70
     1
102
RTVSPropertyOp58
 70
     1
102
RTVSPropertyOp59
 70
     1
102
RTVSPropertyOp60
 70
     1
102
RTVSPropertyOp61
 70
     1
102
RTVSPropertyOp62
 70
     1
  0
XRECORD
  5
74E
102
{ACAD_REACTORS
330
74D
102
}
330
74D
100
AcDbXrecord
280
     1
102
RTVSPost2010Prop28
280
     0
102
RTVSPost2010PropOp28
 70
     1
102
RTVSPost2010Prop29
280
     1
102
RTVSPost2010PropOp29
 70
     1
102
RTVSPost2010Prop30
280
     1
102
RTVSPost2010PropOp30
 70
     1
102
RTVSPost2010Prop31
280
     0
102
RTVSPost2010PropOp31
 70
     1
102
RTVSPost2010Prop32
280
     0
102
RTVSPost2010PropOp32
 70
     1
102
RTVSPost2010Prop33
280
     0
102
RTVSPost2010PropOp33
 70
     1
102
RTVSPost2010Prop34
280
     0
102
RTVSPost2010PropOp34
 70
     1
102
RTVSPost2010Prop35
280
     0
102
RTVSPost2010PropOp35
 70
     1
102
RTVSPost2010Prop36
280
     0
102
RTVSPost2010PropOp36
 70
     1
102
RTVSPost2010Prop37
 90
       50
102
RTVSPost2010PropOp37
 70
     1
102
RTVSPost2010Prop38
140
0.0
102
RTVSPost2010PropOp38
 70
     1
102
RTVSPost2010Prop39
140
1.0
102
RTVSPost2010PropOp39
 70
     1
102
RTVSPost2010Prop40
 90
        0
102
RTVSPost2010PropOp40
 70
     1
102
RTVSPost2010Prop41ColorIndex
 90
       18
102
RTVSPost2010Prop41ColorRGB
 90
        0
102
RTVSPost2010PropOp41
 70
     1
102
RTVSPost2010Prop42
 90
       50
102
RTVSPost2010PropOp42
 70
     1
102
RTVSPost2010Prop43
 90
        3
102
RTVSPost2010PropOp43
 70
     1
102
RTVSPost2010Prop44ColorIndex
 90
        5
102
RTVSPost2010Prop44ColorRGB
 90
      255
102
RTVSPost2010PropOp44
 70
     1
102
RTVSPost2010Prop45
280
     0
102
RTVSPost2010PropOp45
 70
     1
102
RTVSPost2010Prop46
 90
       50
102
RTVSPost2010PropOp46
 70
     1
102
RTVSPost2010Prop47
 90
       50
102
RTVSPost2010PropOp47
 70
     1
102
RTVSPost2010Prop48
 90
       50
102
RTVSPost2010PropOp48
 70
     1
102
RTVSPost2010Prop49
280
     0
102
RTVSPost2010PropOp49
 70
     1
102
RTVSPost2010Prop50
 90
       50
102
RTVSPost2010PropOp50
 70
     1
102
RTVSPost2010Prop51ColorIndex
 90
      256
102
RTVSPost2010Prop51ColorRGB
 90
-16777216
102
RTVSPost2010PropOp51
 70
     0
102
RTVSPost2010Prop52
140
1.0
102
RTVSPost2010PropOp52
 70
     0
102
RTVSPost2010Prop53
 90
        2
102
RTVSPost2010PropOp53
 70
     1
102
RTVSPost2010Prop54
  1
strokes_ogs.tif
102
RTVSPost2010PropOp54
 70
     1
102
RTVSPost2010Prop55
280
     0
102
RTVSPost2010PropOp55
 70
     1
102
RTVSPost2010Prop56
140
1.0
102
RTVSPost2010PropOp56
 70
     1
102
RTVSPost2010Prop57
140
1.0
102
RTVSPost2010PropOp57
 70
     1
102
RTVSPropertyOp0
 70
     1
102
RTVSPropertyOp1
 70
     1
102
RTVSPropertyOp2
 70
     1
102
RTVSPropertyOp3
 70
     1
102
RTVSPropertyOp4
 70
     1
102
RTVSPropertyOp5
 70
     1
102
RTVSPropertyOp6
 70
     1
102
RTVSPropertyOp7
 70
     1
102
RTVSPropertyOp8
 70
     1
102
RTVSPropertyOp9
 70
     1
102
RTVSPropertyOp10
 70
     1
102
RTVSPropertyOp11
 70
     1
102
RTVSPropertyOp12
 70
     1
102
RTVSPropertyOp13
 70
     1
102
RTVSPropertyOp14
 70
     1
102
RTVSPropertyOp15
 70
     1
102
RTVSPropertyOp16
 70
     1
102
RTVSPropertyOp17
 70
     1
102
RTVSPropertyOp18
 70
     1
102
RTVSPropertyOp19
 70
     1
102
RTVSPropertyOp20
 70
     1
102
RTVSPropertyOp21
 70
     1
102
RTVSPropertyOp22
 70
     1
102
RTVSPropertyOp23
 70
     1
102
RTVSPropertyOp24
 70
     1
102
RTVSPropertyOp25
 70
     1
102
RTVSPropertyOp26
 70
     1
102
RTVSPropertyOp27
 70
     1
102
RTVSPropertyOp28
 70
     1
102
RTVSPropertyOp29
 70
     1
102
RTVSPropertyOp30
 70
     1
102
RTVSPropertyOp31
 70
     1
102
RTVSPropertyOp32
 70
     1
102
RTVSPropertyOp33
 70
     1
102
RTVSPropertyOp34
 70
     1
102
RTVSPropertyOp35
 70
     1
102
RTVSPropertyOp36
 70
     1
102
RTVSPropertyOp37
 70
     1
102
RTVSPropertyOp38
 70
     1
102
RTVSPropertyOp39
 70
     1
102
RTVSPropertyOp40
 70
     1
102
RTVSPropertyOp41
 70
     1
102
RTVSPropertyOp42
 70
     1
102
RTVSPropertyOp43
 70
     1
102
RTVSPropertyOp44
 70
     1
102
RTVSPropertyOp45
 70
     1
102
RTVSPropertyOp46
 70
     1
102
RTVSPropertyOp47
 70
     1
102
RTVSPropertyOp48
 70
     1
102
RTVSPropertyOp49
 70
     1
102
RTVSPropertyOp50
 70
     1
102
RTVSPropertyOp51
 70
     0
102
RTVSPropertyOp52
 70
     0
102
RTVSPropertyOp53
 70
     1
102
RTVSPropertyOp54
 70
     1
102
RTVSPropertyOp55
 70
     1
102
RTVSPropertyOp56
 70
     1
102
RTVSPropertyOp57
 70
     1
102
RTVSPropertyOp58
 70
     1
102
RTVSPropertyOp59
 70
     1
102
RTVSPropertyOp60
 70
     1
102
RTVSPropertyOp61
 70
     1
102
RTVSPropertyOp62
 70
     1
  0
XRECORD
  5
748
102
{ACAD_REACTORS
330
747
102
}
330
747
100
AcDbXrecord
280
     1
102
RTVSPost2010Prop28
280
     0
102
RTVSPost2010PropOp28
 70
     1
102
RTVSPost2010Prop29
280
     1
102
RTVSPost2010PropOp29
 70
     1
102
RTVSPost2010Prop30
280
     1
102
RTVSPost2010PropOp30
 70
     1
102
RTVSPost2010Prop31
280
     0
102
RTVSPost2010PropOp31
 70
     1
102
RTVSPost2010Prop32
280
     0
102
RTVSPost2010PropOp32
 70
     1
102
RTVSPost2010Prop33
280
     0
102
RTVSPost2010PropOp33
 70
     1
102
RTVSPost2010Prop34
280
     0
102
RTVSPost2010PropOp34
 70
     1
102
RTVSPost2010Prop35
280
     0
102
RTVSPost2010PropOp35
 70
     1
102
RTVSPost2010Prop36
280
     0
102
RTVSPost2010PropOp36
 70
     1
102
RTVSPost2010Prop37
 90
       50
102
RTVSPost2010PropOp37
 70
     1
102
RTVSPost2010Prop38
140
0.0
102
RTVSPost2010PropOp38
 70
     1
102
RTVSPost2010Prop39
140
1.0
102
RTVSPost2010PropOp39
 70
     1
102
RTVSPost2010Prop40
 90
        0
102
RTVSPost2010PropOp40
 70
     1
102
RTVSPost2010Prop41ColorIndex
 90
       18
102
RTVSPost2010Prop41ColorRGB
 90
        0
102
RTVSPost2010PropOp41
 70
     1
102
RTVSPost2010Prop42
 90
       50
102
RTVSPost2010PropOp42
 70
     1
102
RTVSPost2010Prop43
 90
        3
102
RTVSPost2010PropOp43
 70
     1
102
RTVSPost2010Prop44ColorIndex
 90
        5
102
RTVSPost2010Prop44ColorRGB
 90
      255
102
RTVSPost2010PropOp44
 70
     1
102
RTVSPost2010Prop45
280
     0
102
RTVSPost2010PropOp45
 70
     1
102
RTVSPost2010Prop46
 90
       50
102
RTVSPost2010PropOp46
 70
     1
102
RTVSPost2010Prop47
 90
       50
102
RTVSPost2010PropOp47
 70
     1
102
RTVSPost2010Prop48
 90
       50
102
RTVSPost2010PropOp48
 70
     1
102
RTVSPost2010Prop49
280
     0
102
RTVSPost2010PropOp49
 70
     1
102
RTVSPost2010Prop50
 90
       50
102
RTVSPost2010PropOp50
 70
     1
102
RTVSPost2010Prop51ColorIndex
 90
      256
102
RTVSPost2010Prop51ColorRGB
 90
-16777216
102
RTVSPost2010PropOp51
 70
     0
102
RTVSPost2010Prop52
140
1.0
102
RTVSPost2010PropOp52
 70
     0
102
RTVSPost2010Prop53
 90
        2
102
RTVSPost2010PropOp53
 70
     1
102
RTVSPost2010Prop54
  1
strokes_ogs.tif
102
RTVSPost2010PropOp54
 70
     1
102
RTVSPost2010Prop55
280
     0
102
RTVSPost2010PropOp55
 70
     1
102
RTVSPost2010Prop56
140
1.0
102
RTVSPost2010PropOp56
 70
     1
102
RTVSPost2010Prop57
140
1.0
102
RTVSPost2010PropOp57
 70
     1
102
RTVSPropertyOp0
 70
     1
102
RTVSPropertyOp1
 70
     1
102
RTVSPropertyOp2
 70
     1
102
RTVSPropertyOp3
 70
     1
102
RTVSPropertyOp4
 70
     1
102
RTVSPropertyOp5
 70
     1
102
RTVSPropertyOp6
 70
     1
102
RTVSPropertyOp7
 70
     1
102
RTVSPropertyOp8
 70
     1
102
RTVSPropertyOp9
 70
     1
102
RTVSPropertyOp10
 70
     1
102
RTVSPropertyOp11
 70
     1
102
RTVSPropertyOp12
 70
     1
102
RTVSPropertyOp13
 70
     1
102
RTVSPropertyOp14
 70
     1
102
RTVSPropertyOp15
 70
     1
102
RTVSPropertyOp16
 70
     1
102
RTVSPropertyOp17
 70
     1
102
RTVSPropertyOp18
 70
     1
102
RTVSPropertyOp19
 70
     1
102
RTVSPropertyOp20
 70
     1
102
RTVSPropertyOp21
 70
     1
102
RTVSPropertyOp22
 70
     1
102
RTVSPropertyOp23
 70
     1
102
RTVSPropertyOp24
 70
     1
102
RTVSPropertyOp25
 70
     1
102
RTVSPropertyOp26
 70
     1
102
RTVSPropertyOp27
 70
     1
102
RTVSPropertyOp28
 70
     1
102
RTVSPropertyOp29
 70
     1
102
RTVSPropertyOp30
 70
     1
102
RTVSPropertyOp31
 70
     1
102
RTVSPropertyOp32
 70
     1
102
RTVSPropertyOp33
 70
     1
102
RTVSPropertyOp34
 70
     1
102
RTVSPropertyOp35
 70
     1
102
RTVSPropertyOp36
 70
     1
102
RTVSPropertyOp37
 70
     1
102
RTVSPropertyOp38
 70
     1
102
RTVSPropertyOp39
 70
     1
102
RTVSPropertyOp40
 70
     1
102
RTVSPropertyOp41
 70
     1
102
RTVSPropertyOp42
 70
     1
102
RTVSPropertyOp43
 70
     1
102
RTVSPropertyOp44
 70
     1
102
RTVSPropertyOp45
 70
     1
102
RTVSPropertyOp46
 70
     1
102
RTVSPropertyOp47
 70
     1
102
RTVSPropertyOp48
 70
     1
102
RTVSPropertyOp49
 70
     1
102
RTVSPropertyOp50
 70
     1
102
RTVSPropertyOp51
 70
     0
102
RTVSPropertyOp52
 70
     0
102
RTVSPropertyOp53
 70
     1
102
RTVSPropertyOp54
 70
     1
102
RTVSPropertyOp55
 70
     1
102
RTVSPropertyOp56
 70
     1
102
RTVSPropertyOp57
 70
     1
102
RTVSPropertyOp58
 70
     1
102
RTVSPropertyOp59
 70
     1
102
RTVSPropertyOp60
 70
     1
102
RTVSPropertyOp61
 70
     1
102
RTVSPropertyOp62
 70
     1
  0
XRECORD
  5
74A
102
{ACAD_REACTORS
330
749
102
}
330
749
100
AcDbXrecord
280
     1
102
RTVSPost2010Prop28
280
     0
102
RTVSPost2010PropOp28
 70
     1
102
RTVSPost2010Prop29
280
     1
102
RTVSPost2010PropOp29
 70
     1
102
RTVSPost2010Prop30
280
     1
102
RTVSPost2010PropOp30
 70
     1
102
RTVSPost2010Prop31
280
     0
102
RTVSPost2010PropOp31
 70
     1
102
RTVSPost2010Prop32
280
     0
102
RTVSPost2010PropOp32
 70
     1
102
RTVSPost2010Prop33
280
     0
102
RTVSPost2010PropOp33
 70
     1
102
RTVSPost2010Prop34
280
     0
102
RTVSPost2010PropOp34
 70
     1
102
RTVSPost2010Prop35
280
     0
102
RTVSPost2010PropOp35
 70
     1
102
RTVSPost2010Prop36
280
     0
102
RTVSPost2010PropOp36
 70
     1
102
RTVSPost2010Prop37
 90
       50
102
RTVSPost2010PropOp37
 70
     1
102
RTVSPost2010Prop38
140
0.0
102
RTVSPost2010PropOp38
 70
     1
102
RTVSPost2010Prop39
140
1.0
102
RTVSPost2010PropOp39
 70
     1
102
RTVSPost2010Prop40
 90
        0
102
RTVSPost2010PropOp40
 70
     1
102
RTVSPost2010Prop41ColorIndex
 90
       18
102
RTVSPost2010Prop41ColorRGB
 90
        0
102
RTVSPost2010PropOp41
 70
     1
102
RTVSPost2010Prop42
 90
       50
102
RTVSPost2010PropOp42
 70
     1
102
RTVSPost2010Prop43
 90
        3
102
RTVSPost2010PropOp43
 70
     1
102
RTVSPost2010Prop44ColorIndex
 90
        5
102
RTVSPost2010Prop44ColorRGB
 90
      255
102
RTVSPost2010PropOp44
 70
     1
102
RTVSPost2010Prop45
280
     0
102
RTVSPost2010PropOp45
 70
     1
102
RTVSPost2010Prop46
 90
       50
102
RTVSPost2010PropOp46
 70
     1
102
RTVSPost2010Prop47
 90
       50
102
RTVSPost2010PropOp47
 70
     1
102
RTVSPost2010Prop48
 90
       50
102
RTVSPost2010PropOp48
 70
     1
102
RTVSPost2010Prop49
280
     0
102
RTVSPost2010PropOp49
 70
     1
102
RTVSPost2010Prop50
 90
       50
102
RTVSPost2010PropOp50
 70
     1
102
RTVSPost2010Prop51ColorIndex
 90
      256
102
RTVSPost2010Prop51ColorRGB
 90
-16777216
102
RTVSPost2010PropOp51
 70
     0
102
RTVSPost2010Prop52
140
1.0
102
RTVSPost2010PropOp52
 70
     0
102
RTVSPost2010Prop53
 90
        2
102
RTVSPost2010PropOp53
 70
     1
102
RTVSPost2010Prop54
  1
strokes_ogs.tif
102
RTVSPost2010PropOp54
 70
     1
102
RTVSPost2010Prop55
280
     0
102
RTVSPost2010PropOp55
 70
     1
102
RTVSPost2010Prop56
140
1.0
102
RTVSPost2010PropOp56
 70
     1
102
RTVSPost2010Prop57
140
1.0
102
RTVSPost2010PropOp57
 70
     1
102
RTVSPropertyOp0
 70
     1
102
RTVSPropertyOp1
 70
     1
102
RTVSPropertyOp2
 70
     1
102
RTVSPropertyOp3
 70
     1
102
RTVSPropertyOp4
 70
     1
102
RTVSPropertyOp5
 70
     1
102
RTVSPropertyOp6
 70
     1
102
RTVSPropertyOp7
 70
     1
102
RTVSPropertyOp8
 70
     1
102
RTVSPropertyOp9
 70
     1
102
RTVSPropertyOp10
 70
     1
102
RTVSPropertyOp11
 70
     1
102
RTVSPropertyOp12
 70
     1
102
RTVSPropertyOp13
 70
     1
102
RTVSPropertyOp14
 70
     1
102
RTVSPropertyOp15
 70
     1
102
RTVSPropertyOp16
 70
     1
102
RTVSPropertyOp17
 70
     1
102
RTVSPropertyOp18
 70
     1
102
RTVSPropertyOp19
 70
     1
102
RTVSPropertyOp20
 70
     1
102
RTVSPropertyOp21
 70
     1
102
RTVSPropertyOp22
 70
     1
102
RTVSPropertyOp23
 70
     1
102
RTVSPropertyOp24
 70
     1
102
RTVSPropertyOp25
 70
     1
102
RTVSPropertyOp26
 70
     1
102
RTVSPropertyOp27
 70
     1
102
RTVSPropertyOp28
 70
     1
102
RTVSPropertyOp29
 70
     1
102
RTVSPropertyOp30
 70
     1
102
RTVSPropertyOp31
 70
     1
102
RTVSPropertyOp32
 70
     1
102
RTVSPropertyOp33
 70
     1
102
RTVSPropertyOp34
 70
     1
102
RTVSPropertyOp35
 70
     1
102
RTVSPropertyOp36
 70
     1
102
RTVSPropertyOp37
 70
     1
102
RTVSPropertyOp38
 70
     1
102
RTVSPropertyOp39
 70
     1
102
RTVSPropertyOp40
 70
     1
102
RTVSPropertyOp41
 70
     1
102
RTVSPropertyOp42
 70
     1
102
RTVSPropertyOp43
 70
     1
102
RTVSPropertyOp44
 70
     1
102
RTVSPropertyOp45
 70
     1
102
RTVSPropertyOp46
 70
     1
102
RTVSPropertyOp47
 70
     1
102
RTVSPropertyOp48
 70
     1
102
RTVSPropertyOp49
 70
     1
102
RTVSPropertyOp50
 70
     1
102
RTVSPropertyOp51
 70
     0
102
RTVSPropertyOp52
 70
     0
102
RTVSPropertyOp53
 70
     1
102
RTVSPropertyOp54
 70
     1
102
RTVSPropertyOp55
 70
     1
102
RTVSPropertyOp56
 70
     1
102
RTVSPropertyOp57
 70
     1
102
RTVSPropertyOp58
 70
     1
102
RTVSPropertyOp59
 70
     1
102
RTVSPropertyOp60
 70
     1
102
RTVSPropertyOp61
 70
     1
102
RTVSPropertyOp62
 70
     1
  0
XRECORD
  5
73A
102
{ACAD_REACTORS
330
739
102
}
330
739
100
AcDbXrecord
280
     1
102
RTVSPost2010Prop28
280
     0
102
RTVSPost2010PropOp28
 70
     1
102
RTVSPost2010Prop29
280
     1
102
RTVSPost2010PropOp29
 70
     1
102
RTVSPost2010Prop30
280
     1
102
RTVSPost2010PropOp30
 70
     1
102
RTVSPost2010Prop31
280
     0
102
RTVSPost2010PropOp31
 70
     1
102
RTVSPost2010Prop32
280
     0
102
RTVSPost2010PropOp32
 70
     1
102
RTVSPost2010Prop33
280
     0
102
RTVSPost2010PropOp33
 70
     1
102
RTVSPost2010Prop34
280
     0
102
RTVSPost2010PropOp34
 70
     1
102
RTVSPost2010Prop35
280
     0
102
RTVSPost2010PropOp35
 70
     1
102
RTVSPost2010Prop36
280
     0
102
RTVSPost2010PropOp36
 70
     1
102
RTVSPost2010Prop37
 90
       50
102
RTVSPost2010PropOp37
 70
     1
102
RTVSPost2010Prop38
140
0.0
102
RTVSPost2010PropOp38
 70
     1
102
RTVSPost2010Prop39
140
1.0
102
RTVSPost2010PropOp39
 70
     1
102
RTVSPost2010Prop40
 90
        0
102
RTVSPost2010PropOp40
 70
     1
102
RTVSPost2010Prop41ColorIndex
 90
       18
102
RTVSPost2010Prop41ColorRGB
 90
        0
102
RTVSPost2010PropOp41
 70
     1
102
RTVSPost2010Prop42
 90
       50
102
RTVSPost2010PropOp42
 70
     1
102
RTVSPost2010Prop43
 90
        3
102
RTVSPost2010PropOp43
 70
     1
102
RTVSPost2010Prop44ColorIndex
 90
        5
102
RTVSPost2010Prop44ColorRGB
 90
      255
102
RTVSPost2010PropOp44
 70
     1
102
RTVSPost2010Prop45
280
     0
102
RTVSPost2010PropOp45
 70
     1
102
RTVSPost2010Prop46
 90
       50
102
RTVSPost2010PropOp46
 70
     1
102
RTVSPost2010Prop47
 90
       50
102
RTVSPost2010PropOp47
 70
     1
102
RTVSPost2010Prop48
 90
       50
102
RTVSPost2010PropOp48
 70
     1
102
RTVSPost2010Prop49
280
     0
102
RTVSPost2010PropOp49
 70
     1
102
RTVSPost2010Prop50
 90
       50
102
RTVSPost2010PropOp50
 70
     1
102
RTVSPost2010Prop51ColorIndex
 90
      256
102
RTVSPost2010Prop51ColorRGB
 90
-16777216
102
RTVSPost2010PropOp51
 70
     0
102
RTVSPost2010Prop52
140
1.0
102
RTVSPost2010PropOp52
 70
     0
102
RTVSPost2010Prop53
 90
        2
102
RTVSPost2010PropOp53
 70
     1
102
RTVSPost2010Prop54
  1
strokes_ogs.tif
102
RTVSPost2010PropOp54
 70
     1
102
RTVSPost2010Prop55
280
     0
102
RTVSPost2010PropOp55
 70
     1
102
RTVSPost2010Prop56
140
1.0
102
RTVSPost2010PropOp56
 70
     1
102
RTVSPost2010Prop57
140
1.0
102
RTVSPost2010PropOp57
 70
     1
102
RTVSPropertyOp0
 70
     1
102
RTVSPropertyOp1
 70
     1
102
RTVSPropertyOp2
 70
     1
102
RTVSPropertyOp3
 70
     1
102
RTVSPropertyOp4
 70
     1
102
RTVSPropertyOp5
 70
     1
102
RTVSPropertyOp6
 70
     1
102
RTVSPropertyOp7
 70
     1
102
RTVSPropertyOp8
 70
     1
102
RTVSPropertyOp9
 70
     1
102
RTVSPropertyOp10
 70
     1
102
RTVSPropertyOp11
 70
     1
102
RTVSPropertyOp12
 70
     1
102
RTVSPropertyOp13
 70
     1
102
RTVSPropertyOp14
 70
     1
102
RTVSPropertyOp15
 70
     1
102
RTVSPropertyOp16
 70
     1
102
RTVSPropertyOp17
 70
     1
102
RTVSPropertyOp18
 70
     1
102
RTVSPropertyOp19
 70
     1
102
RTVSPropertyOp20
 70
     1
102
RTVSPropertyOp21
 70
     1
102
RTVSPropertyOp22
 70
     1
102
RTVSPropertyOp23
 70
     1
102
RTVSPropertyOp24
 70
     1
102
RTVSPropertyOp25
 70
     1
102
RTVSPropertyOp26
 70
     1
102
RTVSPropertyOp27
 70
     1
102
RTVSPropertyOp28
 70
     1
102
RTVSPropertyOp29
 70
     1
102
RTVSPropertyOp30
 70
     1
102
RTVSPropertyOp31
 70
     1
102
RTVSPropertyOp32
 70
     1
102
RTVSPropertyOp33
 70
     1
102
RTVSPropertyOp34
 70
     1
102
RTVSPropertyOp35
 70
     1
102
RTVSPropertyOp36
 70
     1
102
RTVSPropertyOp37
 70
     1
102
RTVSPropertyOp38
 70
     1
102
RTVSPropertyOp39
 70
     1
102
RTVSPropertyOp40
 70
     1
102
RTVSPropertyOp41
 70
     1
102
RTVSPropertyOp42
 70
     1
102
RTVSPropertyOp43
 70
     1
102
RTVSPropertyOp44
 70
     1
102
RTVSPropertyOp45
 70
     1
102
RTVSPropertyOp46
 70
     1
102
RTVSPropertyOp47
 70
     1
102
RTVSPropertyOp48
 70
     1
102
RTVSPropertyOp49
 70
     1
102
RTVSPropertyOp50
 70
     1
102
RTVSPropertyOp51
 70
     0
102
RTVSPropertyOp52
 70
     0
102
RTVSPropertyOp53
 70
     1
102
RTVSPropertyOp54
 70
     1
102
RTVSPropertyOp55
 70
     1
102
RTVSPropertyOp56
 70
     1
102
RTVSPropertyOp57
 70
     1
102
RTVSPropertyOp58
 70
     1
102
RTVSPropertyOp59
 70
     1
102
RTVSPropertyOp60
 70
     1
102
RTVSPropertyOp61
 70
     1
102
RTVSPropertyOp62
 70
     1
  0
XRECORD
  5
72E
102
{ACAD_REACTORS
330
72D
102
}
330
72D
100
AcDbXrecord
280
     1
102
RTVSPost2010Prop28
280
     0
102
RTVSPost2010PropOp28
 70
     1
102
RTVSPost2010Prop29
280
     1
102
RTVSPost2010PropOp29
 70
     1
102
RTVSPost2010Prop30
280
     1
102
RTVSPost2010PropOp30
 70
     1
102
RTVSPost2010Prop31
280
     0
102
RTVSPost2010PropOp31
 70
     1
102
RTVSPost2010Prop32
280
     0
102
RTVSPost2010PropOp32
 70
     1
102
RTVSPost2010Prop33
280
     0
102
RTVSPost2010PropOp33
 70
     1
102
RTVSPost2010Prop34
280
     0
102
RTVSPost2010PropOp34
 70
     1
102
RTVSPost2010Prop35
280
     0
102
RTVSPost2010PropOp35
 70
     1
102
RTVSPost2010Prop36
280
     0
102
RTVSPost2010PropOp36
 70
     1
102
RTVSPost2010Prop37
 90
       50
102
RTVSPost2010PropOp37
 70
     1
102
RTVSPost2010Prop38
140
0.0
102
RTVSPost2010PropOp38
 70
     1
102
RTVSPost2010Prop39
140
1.0
102
RTVSPost2010PropOp39
 70
     1
102
RTVSPost2010Prop40
 90
        0
102
RTVSPost2010PropOp40
 70
     1
102
RTVSPost2010Prop41ColorIndex
 90
       18
102
RTVSPost2010Prop41ColorRGB
 90
        0
102
RTVSPost2010PropOp41
 70
     1
102
RTVSPost2010Prop42
 90
       50
102
RTVSPost2010PropOp42
 70
     1
102
RTVSPost2010Prop43
 90
        3
102
RTVSPost2010PropOp43
 70
     1
102
RTVSPost2010Prop44ColorIndex
 90
        5
102
RTVSPost2010Prop44ColorRGB
 90
      255
102
RTVSPost2010PropOp44
 70
     1
102
RTVSPost2010Prop45
280
     0
102
RTVSPost2010PropOp45
 70
     1
102
RTVSPost2010Prop46
 90
       50
102
RTVSPost2010PropOp46
 70
     1
102
RTVSPost2010Prop47
 90
       50
102
RTVSPost2010PropOp47
 70
     1
102
RTVSPost2010Prop48
 90
       50
102
RTVSPost2010PropOp48
 70
     1
102
RTVSPost2010Prop49
280
     0
102
RTVSPost2010PropOp49
 70
     1
102
RTVSPost2010Prop50
 90
       50
102
RTVSPost2010PropOp50
 70
     1
102
RTVSPost2010Prop51ColorIndex
 90
      256
102
RTVSPost2010Prop51ColorRGB
 90
-16777216
102
RTVSPost2010PropOp51
 70
     0
102
RTVSPost2010Prop52
140
1.0
102
RTVSPost2010PropOp52
 70
     0
102
RTVSPost2010Prop53
 90
        2
102
RTVSPost2010PropOp53
 70
     1
102
RTVSPost2010Prop54
  1
strokes_ogs.tif
102
RTVSPost2010PropOp54
 70
     1
102
RTVSPost2010Prop55
280
     0
102
RTVSPost2010PropOp55
 70
     1
102
RTVSPost2010Prop56
140
1.0
102
RTVSPost2010PropOp56
 70
     1
102
RTVSPost2010Prop57
140
1.0
102
RTVSPost2010PropOp57
 70
     1
102
RTVSPropertyOp0
 70
     1
102
RTVSPropertyOp1
 70
     1
102
RTVSPropertyOp2
 70
     1
102
RTVSPropertyOp3
 70
     1
102
RTVSPropertyOp4
 70
     1
102
RTVSPropertyOp5
 70
     1
102
RTVSPropertyOp6
 70
     1
102
RTVSPropertyOp7
 70
     1
102
RTVSPropertyOp8
 70
     1
102
RTVSPropertyOp9
 70
     1
102
RTVSPropertyOp10
 70
     1
102
RTVSPropertyOp11
 70
     1
102
RTVSPropertyOp12
 70
     1
102
RTVSPropertyOp13
 70
     1
102
RTVSPropertyOp14
 70
     1
102
RTVSPropertyOp15
 70
     1
102
RTVSPropertyOp16
 70
     1
102
RTVSPropertyOp17
 70
     1
102
RTVSPropertyOp18
 70
     1
102
RTVSPropertyOp19
 70
     1
102
RTVSPropertyOp20
 70
     1
102
RTVSPropertyOp21
 70
     1
102
RTVSPropertyOp22
 70
     1
102
RTVSPropertyOp23
 70
     1
102
RTVSPropertyOp24
 70
     1
102
RTVSPropertyOp25
 70
     1
102
RTVSPropertyOp26
 70
     1
102
RTVSPropertyOp27
 70
     1
102
RTVSPropertyOp28
 70
     1
102
RTVSPropertyOp29
 70
     1
102
RTVSPropertyOp30
 70
     1
102
RTVSPropertyOp31
 70
     1
102
RTVSPropertyOp32
 70
     1
102
RTVSPropertyOp33
 70
     1
102
RTVSPropertyOp34
 70
     1
102
RTVSPropertyOp35
 70
     1
102
RTVSPropertyOp36
 70
     1
102
RTVSPropertyOp37
 70
     1
102
RTVSPropertyOp38
 70
     1
102
RTVSPropertyOp39
 70
     1
102
RTVSPropertyOp40
 70
     1
102
RTVSPropertyOp41
 70
     1
102
RTVSPropertyOp42
 70
     1
102
RTVSPropertyOp43
 70
     1
102
RTVSPropertyOp44
 70
     1
102
RTVSPropertyOp45
 70
     1
102
RTVSPropertyOp46
 70
     1
102
RTVSPropertyOp47
 70
     1
102
RTVSPropertyOp48
 70
     1
102
RTVSPropertyOp49
 70
     1
102
RTVSPropertyOp50
 70
     1
102
RTVSPropertyOp51
 70
     0
102
RTVSPropertyOp52
 70
     0
102
RTVSPropertyOp53
 70
     1
102
RTVSPropertyOp54
 70
     1
102
RTVSPropertyOp55
 70
     1
102
RTVSPropertyOp56
 70
     1
102
RTVSPropertyOp57
 70
     1
102
RTVSPropertyOp58
 70
     1
102
RTVSPropertyOp59
 70
     1
102
RTVSPropertyOp60
 70
     1
102
RTVSPropertyOp61
 70
     1
102
RTVSPropertyOp62
 70
     1
  0
XRECORD
  5
74C
102
{ACAD_REACTORS
330
74B
102
}
330
74B
100
AcDbXrecord
280
     1
102
RTVSPost2010Prop28
280
     0
102
RTVSPost2010PropOp28
 70
     1
102
RTVSPost2010Prop29
280
     1
102
RTVSPost2010PropOp29
 70
     1
102
RTVSPost2010Prop30
280
     1
102
RTVSPost2010PropOp30
 70
     1
102
RTVSPost2010Prop31
280
     0
102
RTVSPost2010PropOp31
 70
     1
102
RTVSPost2010Prop32
280
     0
102
RTVSPost2010PropOp32
 70
     1
102
RTVSPost2010Prop33
280
     0
102
RTVSPost2010PropOp33
 70
     1
102
RTVSPost2010Prop34
280
     0
102
RTVSPost2010PropOp34
 70
     1
102
RTVSPost2010Prop35
280
     0
102
RTVSPost2010PropOp35
 70
     1
102
RTVSPost2010Prop36
280
     0
102
RTVSPost2010PropOp36
 70
     1
102
RTVSPost2010Prop37
 90
       50
102
RTVSPost2010PropOp37
 70
     1
102
RTVSPost2010Prop38
140
0.0
102
RTVSPost2010PropOp38
 70
     1
102
RTVSPost2010Prop39
140
1.0
102
RTVSPost2010PropOp39
 70
     1
102
RTVSPost2010Prop40
 90
        0
102
RTVSPost2010PropOp40
 70
     1
102
RTVSPost2010Prop41ColorIndex
 90
       18
102
RTVSPost2010Prop41ColorRGB
 90
        0
102
RTVSPost2010PropOp41
 70
     1
102
RTVSPost2010Prop42
 90
       50
102
RTVSPost2010PropOp42
 70
     1
102
RTVSPost2010Prop43
 90
        3
102
RTVSPost2010PropOp43
 70
     1
102
RTVSPost2010Prop44ColorIndex
 90
        5
102
RTVSPost2010Prop44ColorRGB
 90
      255
102
RTVSPost2010PropOp44
 70
     1
102
RTVSPost2010Prop45
280
     0
102
RTVSPost2010PropOp45
 70
     1
102
RTVSPost2010Prop46
 90
       50
102
RTVSPost2010PropOp46
 70
     1
102
RTVSPost2010Prop47
 90
       50
102
RTVSPost2010PropOp47
 70
     1
102
RTVSPost2010Prop48
 90
       50
102
RTVSPost2010PropOp48
 70
     1
102
RTVSPost2010Prop49
280
     0
102
RTVSPost2010PropOp49
 70
     1
102
RTVSPost2010Prop50
 90
       50
102
RTVSPost2010PropOp50
 70
     1
102
RTVSPost2010Prop51ColorIndex
 90
      256
102
RTVSPost2010Prop51ColorRGB
 90
-16777216
102
RTVSPost2010PropOp51
 70
     0
102
RTVSPost2010Prop52
140
1.0
102
RTVSPost2010PropOp52
 70
     0
102
RTVSPost2010Prop53
 90
        2
102
RTVSPost2010PropOp53
 70
     1
102
RTVSPost2010Prop54
  1
strokes_ogs.tif
102
RTVSPost2010PropOp54
 70
     1
102
RTVSPost2010Prop55
280
     0
102
RTVSPost2010PropOp55
 70
     1
102
RTVSPost2010Prop56
140
1.0
102
RTVSPost2010PropOp56
 70
     1
102
RTVSPost2010Prop57
140
1.0
102
RTVSPost2010PropOp57
 70
     1
102
RTVSPropertyOp0
 70
     1
102
RTVSPropertyOp1
 70
     1
102
RTVSPropertyOp2
 70
     1
102
RTVSPropertyOp3
 70
     1
102
RTVSPropertyOp4
 70
     1
102
RTVSPropertyOp5
 70
     1
102
RTVSPropertyOp6
 70
     1
102
RTVSPropertyOp7
 70
     1
102
RTVSPropertyOp8
 70
     1
102
RTVSPropertyOp9
 70
     1
102
RTVSPropertyOp10
 70
     1
102
RTVSPropertyOp11
 70
     1
102
RTVSPropertyOp12
 70
     1
102
RTVSPropertyOp13
 70
     1
102
RTVSPropertyOp14
 70
     1
102
RTVSPropertyOp15
 70
     1
102
RTVSPropertyOp16
 70
     1
102
RTVSPropertyOp17
 70
     1
102
RTVSPropertyOp18
 70
     1
102
RTVSPropertyOp19
 70
     1
102
RTVSPropertyOp20
 70
     1
102
RTVSPropertyOp21
 70
     1
102
RTVSPropertyOp22
 70
     1
102
RTVSPropertyOp23
 70
     1
102
RTVSPropertyOp24
 70
     1
102
RTVSPropertyOp25
 70
     1
102
RTVSPropertyOp26
 70
     1
102
RTVSPropertyOp27
 70
     1
102
RTVSPropertyOp28
 70
     1
102
RTVSPropertyOp29
 70
     1
102
RTVSPropertyOp30
 70
     1
102
RTVSPropertyOp31
 70
     1
102
RTVSPropertyOp32
 70
     1
102
RTVSPropertyOp33
 70
     1
102
RTVSPropertyOp34
 70
     1
102
RTVSPropertyOp35
 70
     1
102
RTVSPropertyOp36
 70
     1
102
RTVSPropertyOp37
 70
     1
102
RTVSPropertyOp38
 70
     1
102
RTVSPropertyOp39
 70
     1
102
RTVSPropertyOp40
 70
     1
102
RTVSPropertyOp41
 70
     1
102
RTVSPropertyOp42
 70
     1
102
RTVSPropertyOp43
 70
     1
102
RTVSPropertyOp44
 70
     1
102
RTVSPropertyOp45
 70
     1
102
RTVSPropertyOp46
 70
     1
102
RTVSPropertyOp47
 70
     1
102
RTVSPropertyOp48
 70
     1
102
RTVSPropertyOp49
 70
     1
102
RTVSPropertyOp50
 70
     1
102
RTVSPropertyOp51
 70
     0
102
RTVSPropertyOp52
 70
     0
102
RTVSPropertyOp53
 70
     1
102
RTVSPropertyOp54
 70
     1
102
RTVSPropertyOp55
 70
     1
102
RTVSPropertyOp56
 70
     1
102
RTVSPropertyOp57
 70
     1
102
RTVSPropertyOp58
 70
     1
102
RTVSPropertyOp59
 70
     1
102
RTVSPropertyOp60
 70
     1
102
RTVSPropertyOp61
 70
     1
102
RTVSPropertyOp62
 70
     1
  0
ENDSEC
  0
EOF
